ISO-10303-21;
HEADER;
FILE_DESCRIPTION (( 'STEP AP203' ),
    '1' );
FILE_NAME ('372625.step',
    '2021-12-08T08:40:39',
    ( '' ),
    ( '' ),
    'SwSTEP 2.0',
    'SolidWorks 2019',
    '' );
FILE_SCHEMA (( 'CONFIG_CONTROL_DESIGN' ));
ENDSEC;

DATA;
#1 = CARTESIAN_POINT ( 'NONE',  ( -1.282766372550154493E-30, 4.499338761231704644E-32, -3.673988912039226017E-16 ) ) ;
#2 = CC_DESIGN_APPROVAL ( #93, ( #180 ) ) ;
#3 =( NAMED_UNIT ( * ) PLANE_ANGLE_UNIT ( ) SI_UNIT ( $, .RADIAN. ) );
#4 = FACE_OUTER_BOUND ( 'NONE', #36, .T. ) ;
#5 = APPROVAL_ROLE ( '' ) ;
#6 = COORDINATED_UNIVERSAL_TIME_OFFSET ( 1, 0, .AHEAD. ) ;
#7 = PRODUCT_RELATED_PRODUCT_CATEGORY ( 'detail', '', ( #14 ) ) ;
#8 = PERSON_AND_ORGANIZATION_ROLE ( 'creator' ) ;
#9 = CALENDAR_DATE ( 2021, 8, 12 ) ;
#10 = APPROVAL_PERSON_ORGANIZATION ( #128, #192, #198 ) ;
#11 = EDGE_LOOP ( 'NONE', ( #73 ) ) ;
#12 = AXIS2_PLACEMENT_3D ( 'NONE', #17, #67, #77 ) ;
#13 = EDGE_CURVE ( 'NONE', #92, #92, #161, .T. ) ;
#14 = PRODUCT ( '372625', '372625', '', ( #148 ) ) ;
#15 = AXIS2_PLACEMENT_3D ( 'NONE', #60, #70, #113 ) ;
#16 = DIRECTION ( 'NONE',  ( 4.275831445896958607E-31, 1.000000000000000000, 1.224646799147353207E-16 ) ) ;
#17 = CARTESIAN_POINT ( 'NONE',  ( 2.765253220363762122E-13, -9.699202649247039195E-15, 79.20000000000001705 ) ) ;
#18 = VERTEX_POINT ( 'NONE', #176 ) ;
#19 = CC_DESIGN_APPROVAL ( #185, ( #22 ) ) ;
#20 = CARTESIAN_POINT ( 'NONE',  ( 1.117274028429802674E-13, 2.999519565323705910E-32, 32.00000000000000000 ) ) ;
#21 = PERSON_AND_ORGANIZATION ( #146, #41 ) ;
#22 = PRODUCT_DEFINITION_FORMATION_WITH_SPECIFIED_SOURCE ( 'ANY', '', #14, .NOT_KNOWN. ) ;
#23 = EDGE_LOOP ( 'NONE', ( #104 ) ) ;
#24 = DATE_AND_TIME ( #37, #90 ) ;
#25 = EDGE_LOOP ( 'NONE', ( #178 ) ) ;
#26 = ADVANCED_BREP_SHAPE_REPRESENTATION ( '372625', ( #152, #158, #200 ), #165 ) ;
#27 = CARTESIAN_POINT ( 'NONE',  ( 2.793185071074506684E-13, -9.797174393178826052E-15, 80.00000000000000000 ) ) ;
#28 = CLOSED_SHELL ( 'NONE', ( #91, #45, #172 ) ) ;
#29 = CARTESIAN_POINT ( 'NONE',  ( 2.793185071074506684E-13, 2.399615652258959583E-32, 80.00000000000000000 ) ) ;
#30 = EDGE_LOOP ( 'NONE', ( #66 ) ) ;
#31 = CARTESIAN_POINT ( 'NONE',  ( 1.117274028429802674E-13, 2.999519565323705910E-32, 32.00000000000000000 ) ) ;
#32 = CARTESIAN_POINT ( 'NONE',  ( 2.793185071074506684E-13, -9.797174393178826052E-15, 80.00000000000000000 ) ) ;
#33 = CARTESIAN_POINT ( 'NONE',  ( 0.0000000000000000000, 0.0000000000000000000, 0.0000000000000000000 ) ) ;
#34 = AXIS2_PLACEMENT_3D ( 'NONE', #20, #107, #103 ) ;
#35 = APPROVAL_DATE_TIME ( #111, #93 ) ;
#36 = EDGE_LOOP ( 'NONE', ( #131 ) ) ;
#37 = CALENDAR_DATE ( 2021, 8, 12 ) ;
#38 = LOCAL_TIME ( 9, 40, 39.00000000000000000, #86 ) ;
#39 = CALENDAR_DATE ( 2021, 8, 12 ) ;
#40 = CALENDAR_DATE ( 2021, 8, 12 ) ;
#41 = ORGANIZATION ( 'UNSPECIFIED', 'UNSPECIFIED', '' ) ;
#42 = ADVANCED_FACE ( 'NONE', ( #169 ), #68, .F. ) ;
#43 = EDGE_LOOP ( 'NONE', ( #118 ) ) ;
#44 = FACE_OUTER_BOUND ( 'NONE', #75, .T. ) ;
#45 = ADVANCED_FACE ( 'NONE', ( #63, #50 ), #138, .T. ) ;
#46 = DIRECTION ( 'NONE',  ( -3.491481338843133355E-15, 1.224646799147353207E-16, -1.000000000000000000 ) ) ;
#47 = AXIS2_PLACEMENT_3D ( 'NONE', #29, #46, #177 ) ;
#48 = PLANE ( 'NONE',  #34 ) ;
#49 = DIRECTION ( 'NONE',  ( -4.275831445896958607E-31, -1.000000000000000000, -1.224646799147353207E-16 ) ) ;
#50 = FACE_OUTER_BOUND ( 'NONE', #173, .T. ) ;
#51 = CALENDAR_DATE ( 2021, 8, 12 ) ;
#52 = EDGE_CURVE ( 'NONE', #157, #157, #80, .T. ) ;
#53 = APPLICATION_CONTEXT ( 'configuration controlled 3d designs of mechanical parts and assemblies' ) ;
#54 = PERSON_AND_ORGANIZATION ( #146, #41 ) ;
#55 = APPLICATION_PROTOCOL_DEFINITION ( 'international standard', 'config_control_design', 1994, #59 ) ;
#56 = COORDINATED_UNIVERSAL_TIME_OFFSET ( 1, 0, .AHEAD. ) ;
#57 = CC_DESIGN_DATE_AND_TIME_ASSIGNMENT ( #24, #88, ( #180 ) ) ;
#58 = AXIS2_PLACEMENT_3D ( 'NONE', #195, #82, #49 ) ;
#59 = APPLICATION_CONTEXT ( 'configuration controlled 3d designs of mechanical parts and assemblies' ) ;
#60 = CARTESIAN_POINT ( 'NONE',  ( 1.117274028429802674E-13, -3.918869757271530263E-15, 32.00000000000000000 ) ) ;
#61 = EDGE_CURVE ( 'NONE', #18, #18, #144, .T. ) ;
#62 = DIRECTION ( 'NONE',  ( -3.491481338843133355E-15, 1.224646799147353207E-16, -1.000000000000000000 ) ) ;
#63 = FACE_OUTER_BOUND ( 'NONE', #154, .T. ) ;
#64 = AXIS2_PLACEMENT_3D ( 'NONE', #95, #62, #65 ) ;
#65 = DIRECTION ( 'NONE',  ( 4.275831445896958607E-31, 1.000000000000000000, 1.224646799147353207E-16 ) ) ;
#66 = ORIENTED_EDGE ( 'NONE', *, *, #134, .F. ) ;
#67 = DIRECTION ( 'NONE',  ( -3.491481338843133355E-15, 1.224646799147353207E-16, -1.000000000000000000 ) ) ;
#68 = PLANE ( 'NONE',  #100 ) ;
#69 = SECURITY_CLASSIFICATION_LEVEL ( 'unclassified' ) ;
#70 = DIRECTION ( 'NONE',  ( -3.491481338843133355E-15, 1.224646799147353207E-16, -1.000000000000000000 ) ) ;
#71 =( NAMED_UNIT ( * ) SI_UNIT ( $, .STERADIAN. ) SOLID_ANGLE_UNIT ( ) );
#72 = PERSON_AND_ORGANIZATION_ROLE ( 'design_owner' ) ;
#73 = ORIENTED_EDGE ( 'NONE', *, *, #13, .F. ) ;
#74 = UNCERTAINTY_MEASURE_WITH_UNIT (LENGTH_MEASURE( 1.000000000000000082E-05 ), #137, 'distance_accuracy_value', 'NONE');
#75 = EDGE_LOOP ( 'NONE', ( #191 ) ) ;
#76 = CIRCLE ( 'NONE', #171, 3.999999999999995559 ) ;
#77 = DIRECTION ( 'NONE',  ( 0.0000000000000000000, 1.000000000000000000, 0.0000000000000000000 ) ) ;
#78 = CARTESIAN_POINT ( 'NONE',  ( 2.793185071074506684E-13, 3.199999999999993072, 80.00000000000000000 ) ) ;
#79 = DIRECTION ( 'NONE',  ( -4.275831445896958607E-31, -1.000000000000000000, -1.224646799147353207E-16 ) ) ;
#80 = CIRCLE ( 'NONE', #12, 4.000000000000002665 ) ;
#81 = VERTEX_POINT ( 'NONE', #105 ) ;
#82 = DIRECTION ( 'NONE',  ( 3.491481338843133355E-15, -1.224646799147353207E-16, 1.000000000000000000 ) ) ;
#83 = ADVANCED_FACE ( 'NONE', ( #123, #4 ), #189, .T. ) ;
#84 = APPROVAL_STATUS ( 'not_yet_approved' ) ;
#85 = CONICAL_SURFACE ( 'NONE', #106, 3.200000000000003286, 0.7853981633974597143 ) ;
#86 = COORDINATED_UNIVERSAL_TIME_OFFSET ( 1, 0, .AHEAD. ) ;
#87 = APPLICATION_PROTOCOL_DEFINITION ( 'international standard', 'config_control_design', 1994, #53 ) ;
#88 = DATE_TIME_ROLE ( 'classification_date' ) ;
#89 = CC_DESIGN_SECURITY_CLASSIFICATION ( #180, ( #22 ) ) ;
#90 = LOCAL_TIME ( 9, 40, 39.00000000000000000, #56 ) ;
#91 = ADVANCED_FACE ( 'NONE', ( #193 ), #190, .F. ) ;
#92 = VERTEX_POINT ( 'NONE', #159 ) ;
#93 = APPROVAL ( #182, 'UNSPECIFIED' ) ;
#94 = PLANE ( 'NONE',  #47 ) ;
#95 = CARTESIAN_POINT ( 'NONE',  ( 0.0000000000000000000, 0.0000000000000000000, 0.0000000000000000000 ) ) ;
#96 = FACE_OUTER_BOUND ( 'NONE', #11, .T. ) ;
#97 = DIRECTION ( 'NONE',  ( -3.491481338843133355E-15, 1.224646799147353207E-16, -1.000000000000000000 ) ) ;
#98 = DATE_TIME_ROLE ( 'creation_date' ) ;
#99 = APPROVAL_ROLE ( '' ) ;
#100 = AXIS2_PLACEMENT_3D ( 'NONE', #31, #203, #79 ) ;
#101 = PERSON_AND_ORGANIZATION ( #146, #41 ) ;
#102 = CC_DESIGN_PERSON_AND_ORGANIZATION_ASSIGNMENT ( #21, #117, ( #142 ) ) ;
#103 = DIRECTION ( 'NONE',  ( -4.275831445896958607E-31, -1.000000000000000000, -1.224646799147353207E-16 ) ) ;
#104 = ORIENTED_EDGE ( 'NONE', *, *, #187, .T. ) ;
#105 = CARTESIAN_POINT ( 'NONE',  ( 1.117274028429802674E-13, 3.999999999999991562, 32.00000000000000000 ) ) ;
#106 = AXIS2_PLACEMENT_3D ( 'NONE', #32, #97, #162 ) ;
#107 = DIRECTION ( 'NONE',  ( 3.491481338843133355E-15, -1.224646799147353207E-16, 1.000000000000000000 ) ) ;
#108 = DIRECTION ( 'NONE',  ( 0.0000000000000000000, 1.000000000000000000, 0.0000000000000000000 ) ) ;
#109 = DIRECTION ( 'NONE',  ( -3.491481338843133355E-15, 1.224646799147353207E-16, -1.000000000000000000 ) ) ;
#110 = CC_DESIGN_PERSON_AND_ORGANIZATION_ASSIGNMENT ( #164, #197, ( #180 ) ) ;
#111 = DATE_AND_TIME ( #51, #168 ) ;
#112 = PERSON_AND_ORGANIZATION ( #146, #41 ) ;
#113 = DIRECTION ( 'NONE',  ( 0.0000000000000000000, 1.000000000000000000, 0.0000000000000000000 ) ) ;
#114 = DATE_AND_TIME ( #9, #184 ) ;
#115 = SHAPE_DEFINITION_REPRESENTATION ( #202, #26 ) ;
#116 = APPROVAL_PERSON_ORGANIZATION ( #112, #93, #99 ) ;
#117 = PERSON_AND_ORGANIZATION_ROLE ( 'creator' ) ;
#118 = ORIENTED_EDGE ( 'NONE', *, *, #52, .F. ) ;
#119 = ORIENTED_EDGE ( 'NONE', *, *, #13, .T. ) ;
#120 = AXIS2_PLACEMENT_3D ( 'NONE', #1, #109, #179 ) ;
#121 = FACE_OUTER_BOUND ( 'NONE', #43, .T. ) ;
#122 = DIRECTION ( 'NONE',  ( -3.491481338843133355E-15, 1.224646799147353207E-16, -1.000000000000000000 ) ) ;
#123 = FACE_OUTER_BOUND ( 'NONE', #30, .T. ) ;
#124 = CARTESIAN_POINT ( 'NONE',  ( 1.117274028429802674E-13, -3.918869757271530263E-15, 32.00000000000000000 ) ) ;
#125 = PERSON_AND_ORGANIZATION_ROLE ( 'design_supplier' ) ;
#126 = AXIS2_PLACEMENT_3D ( 'NONE', #33, #122, #16 ) ;
#127 = AXIS2_PLACEMENT_3D ( 'NONE', #27, #174, #160 ) ;
#128 = PERSON_AND_ORGANIZATION ( #146, #41 ) ;
#129 = CC_DESIGN_PERSON_AND_ORGANIZATION_ASSIGNMENT ( #149, #125, ( #22 ) ) ;
#130 = PERSON_AND_ORGANIZATION ( #146, #41 ) ;
#131 = ORIENTED_EDGE ( 'NONE', *, *, #52, .T. ) ;
#132 = COORDINATED_UNIVERSAL_TIME_OFFSET ( 1, 0, .AHEAD. ) ;
#133 = CIRCLE ( 'NONE', #127, 3.200000000000003286 ) ;
#134 = EDGE_CURVE ( 'NONE', #81, #81, #76, .T. ) ;
#135 = ORIENTED_EDGE ( 'NONE', *, *, #61, .F. ) ;
#136 = DIRECTION ( 'NONE',  ( -3.491481338843133355E-15, 1.224646799147353207E-16, -1.000000000000000000 ) ) ;
#137 =( LENGTH_UNIT ( ) NAMED_UNIT ( * ) SI_UNIT ( .MILLI., .METRE. ) );
#138 = CYLINDRICAL_SURFACE ( 'NONE', #126, 3.999999999999993339 ) ;
#139 = ADVANCED_FACE ( 'NONE', ( #44 ), #94, .F. ) ;
#140 = LOCAL_TIME ( 9, 40, 39.00000000000000000, #143 ) ;
#141 = FACE_BOUND ( 'NONE', #23, .T. ) ;
#142 = PRODUCT_DEFINITION ( 'UNKNOWN', '', #22, #156 ) ;
#143 = COORDINATED_UNIVERSAL_TIME_OFFSET ( 1, 0, .AHEAD. ) ;
#144 = CIRCLE ( 'NONE', #120, 3.999999999999990674 ) ;
#145 = APPROVAL_DATE_TIME ( #147, #192 ) ;
#146 = PERSON ( 'UNSPECIFIED', 'UNSPECIFIED', 'UNSPECIFIED', ('UNSPECIFIED'), ('UNSPECIFIED'), ('UNSPECIFIED') ) ;
#147 = DATE_AND_TIME ( #39, #140 ) ;
#148 = MECHANICAL_CONTEXT ( 'NONE', #53, 'mechanical' ) ;
#149 = PERSON_AND_ORGANIZATION ( #146, #41 ) ;
#150 = APPROVAL_PERSON_ORGANIZATION ( #130, #185, #5 ) ;
#151 = ORIENTED_EDGE ( 'NONE', *, *, #61, .T. ) ;
#152 = MANIFOLD_SOLID_BREP ( 'Corps-Déplacer/Copier1[1]', #153 ) ;
#153 = CLOSED_SHELL ( 'NONE', ( #42, #83, #155, #139 ) ) ;
#154 = EDGE_LOOP ( 'NONE', ( #135 ) ) ;
#155 = ADVANCED_FACE ( 'NONE', ( #121, #141 ), #85, .T. ) ;
#156 = DESIGN_CONTEXT ( 'detailed design', #59, 'design' ) ;
#157 = VERTEX_POINT ( 'NONE', #196 ) ;
#158 = MANIFOLD_SOLID_BREP ( 'Corps-Déplacer/Copier1[2]', #28 ) ;
#159 = CARTESIAN_POINT ( 'NONE',  ( 1.117274028429802674E-13, 3.999999999999991562, 32.00000000000000000 ) ) ;
#160 = DIRECTION ( 'NONE',  ( 0.0000000000000000000, 1.000000000000000000, 0.0000000000000000000 ) ) ;
#161 = CIRCLE ( 'NONE', #15, 3.999999999999995559 ) ;
#162 = DIRECTION ( 'NONE',  ( 0.0000000000000000000, 1.000000000000000000, 0.0000000000000000000 ) ) ;
#163 = CARTESIAN_POINT ( 'NONE',  ( 0.0000000000000000000, 0.0000000000000000000, 0.0000000000000000000 ) ) ;
#164 = PERSON_AND_ORGANIZATION ( #146, #41 ) ;
#165 =( GEOMETRIC_REPRESENTATION_CONTEXT ( 3 ) GLOBAL_UNCERTAINTY_ASSIGNED_CONTEXT ( ( #74 ) ) GLOBAL_UNIT_ASSIGNED_CONTEXT ( ( #137, #3, #71 ) ) REPRESENTATION_CONTEXT ( 'NONE', 'WORKASPACE' ) );
#166 = CC_DESIGN_DATE_AND_TIME_ASSIGNMENT ( #114, #98, ( #142 ) ) ;
#167 = DATE_AND_TIME ( #40, #38 ) ;
#168 = LOCAL_TIME ( 9, 40, 39.00000000000000000, #132 ) ;
#169 = FACE_OUTER_BOUND ( 'NONE', #25, .T. ) ;
#170 = CC_DESIGN_PERSON_AND_ORGANIZATION_ASSIGNMENT ( #101, #8, ( #22 ) ) ;
#171 = AXIS2_PLACEMENT_3D ( 'NONE', #124, #136, #108 ) ;
#172 = ADVANCED_FACE ( 'NONE', ( #96 ), #48, .T. ) ;
#173 = EDGE_LOOP ( 'NONE', ( #119 ) ) ;
#174 = DIRECTION ( 'NONE',  ( -3.491481338843133355E-15, 1.224646799147353207E-16, -1.000000000000000000 ) ) ;
#175 = VERTEX_POINT ( 'NONE', #78 ) ;
#176 = CARTESIAN_POINT ( 'NONE',  ( 4.275662058086250086E-31, 3.999999999999990674, 1.224598284550174978E-16 ) ) ;
#177 = DIRECTION ( 'NONE',  ( 4.275831445896958607E-31, 1.000000000000000000, 1.224646799147353207E-16 ) ) ;
#178 = ORIENTED_EDGE ( 'NONE', *, *, #134, .T. ) ;
#179 = DIRECTION ( 'NONE',  ( 4.275831445896958607E-31, 1.000000000000000000, 1.224646799147353207E-16 ) ) ;
#180 = SECURITY_CLASSIFICATION ( '', '', #69 ) ;
#181 = APPROVAL_STATUS ( 'not_yet_approved' ) ;
#182 = APPROVAL_STATUS ( 'not_yet_approved' ) ;
#183 = APPROVAL_DATE_TIME ( #167, #185 ) ;
#184 = LOCAL_TIME ( 9, 40, 39.00000000000000000, #6 ) ;
#185 = APPROVAL ( #84, 'UNSPECIFIED' ) ;
#186 = CC_DESIGN_PERSON_AND_ORGANIZATION_ASSIGNMENT ( #54, #72, ( #14 ) ) ;
#187 = EDGE_CURVE ( 'NONE', #175, #175, #133, .T. ) ;
#188 = EDGE_LOOP ( 'NONE', ( #151 ) ) ;
#189 = CYLINDRICAL_SURFACE ( 'NONE', #64, 3.999999999999999112 ) ;
#190 = PLANE ( 'NONE',  #58 ) ;
#191 = ORIENTED_EDGE ( 'NONE', *, *, #187, .F. ) ;
#192 = APPROVAL ( #181, 'UNSPECIFIED' ) ;
#193 = FACE_OUTER_BOUND ( 'NONE', #188, .T. ) ;
#194 = CC_DESIGN_APPROVAL ( #192, ( #142 ) ) ;
#195 = CARTESIAN_POINT ( 'NONE',  ( -6.413831862750772464E-31, 2.249669380615852322E-32, -1.836994456019613009E-16 ) ) ;
#196 = CARTESIAN_POINT ( 'NONE',  ( 2.765253220363762122E-13, 3.999999999999993339, 79.20000000000001705 ) ) ;
#197 = PERSON_AND_ORGANIZATION_ROLE ( 'classification_officer' ) ;
#198 = APPROVAL_ROLE ( '' ) ;
#199 = DIRECTION ( 'NONE',  ( 0.0000000000000000000, 0.0000000000000000000, 1.000000000000000000 ) ) ;
#200 = AXIS2_PLACEMENT_3D ( 'NONE', #163, #199, #201 ) ;
#201 = DIRECTION ( 'NONE',  ( 1.000000000000000000, 0.0000000000000000000, 0.0000000000000000000 ) ) ;
#202 = PRODUCT_DEFINITION_SHAPE ( 'NONE', 'NONE',  #142 ) ;
#203 = DIRECTION ( 'NONE',  ( 3.491481338843133355E-15, -1.224646799147353207E-16, 1.000000000000000000 ) ) ;
ENDSEC;
END-ISO-10303-21;
