ISO-10303-21;
HEADER;
FILE_DESCRIPTION (( 'STEP AP203' ),
    '1' );
FILE_NAME ('372624.step',
    '2021-12-08T08:40:38',
    ( '' ),
    ( '' ),
    'SwSTEP 2.0',
    'SolidWorks 2019',
    '' );
FILE_SCHEMA (( 'CONFIG_CONTROL_DESIGN' ));
ENDSEC;

DATA;
#1 = APPROVAL_PERSON_ORGANIZATION ( #107, #183, #42 ) ;
#2 = DESIGN_CONTEXT ( 'detailed design', #21, 'design' ) ;
#3 = DIRECTION ( 'NONE',  ( 0.0000000000000000000, 1.000000000000000000, 0.0000000000000000000 ) ) ;
#4 = PRODUCT_DEFINITION ( 'UNKNOWN', '', #63, #2 ) ;
#5 = LOCAL_TIME ( 9, 40, 38.00000000000000000, #84 ) ;
#6 = APPROVAL_ROLE ( '' ) ;
#7 = EDGE_LOOP ( 'NONE', ( #151 ) ) ;
#8 = DATE_TIME_ROLE ( 'classification_date' ) ;
#9 = COORDINATED_UNIVERSAL_TIME_OFFSET ( 1, 0, .AHEAD. ) ;
#10 = AXIS2_PLACEMENT_3D ( 'NONE', #45, #182, #103 ) ;
#11 = DIRECTION ( 'NONE',  ( -3.491481338843133355E-15, 1.224646799147353207E-16, -1.000000000000000000 ) ) ;
#12 = APPROVAL ( #64, 'UNSPECIFIED' ) ;
#13 = CIRCLE ( 'NONE', #37, 4.000000000000002665 ) ;
#14 = CC_DESIGN_DATE_AND_TIME_ASSIGNMENT ( #60, #8, ( #90 ) ) ;
#15 = CYLINDRICAL_SURFACE ( 'NONE', #50, 3.999999999999993339 ) ;
#16 = DIRECTION ( 'NONE',  ( 0.0000000000000000000, 0.0000000000000000000, 1.000000000000000000 ) ) ;
#17 = CARTESIAN_POINT ( 'NONE',  ( 2.793185071074506684E-13, 3.199999999999993072, 80.00000000000000000 ) ) ;
#18 = PERSON_AND_ORGANIZATION_ROLE ( 'creator' ) ;
#19 = DIRECTION ( 'NONE',  ( 3.491481338843133355E-15, -1.224646799147353207E-16, 1.000000000000000000 ) ) ;
#20 = ORIENTED_EDGE ( 'NONE', *, *, #49, .T. ) ;
#21 = APPLICATION_CONTEXT ( 'configuration controlled 3d designs of mechanical parts and assemblies' ) ;
#22 = FACE_OUTER_BOUND ( 'NONE', #35, .T. ) ;
#23 = EDGE_LOOP ( 'NONE', ( #97 ) ) ;
#24 = DIRECTION ( 'NONE',  ( -4.275831445896958607E-31, -1.000000000000000000, -1.224646799147353207E-16 ) ) ;
#25 = PERSON_AND_ORGANIZATION ( #33, #181 ) ;
#26 = DIRECTION ( 'NONE',  ( -3.491481338843133355E-15, 1.224646799147353207E-16, -1.000000000000000000 ) ) ;
#27 = DATE_AND_TIME ( #30, #85 ) ;
#28 = CARTESIAN_POINT ( 'NONE',  ( 2.793185071074506684E-13, -9.797174393178826052E-15, 80.00000000000000000 ) ) ;
#29 = APPROVAL_STATUS ( 'not_yet_approved' ) ;
#30 = CALENDAR_DATE ( 2021, 8, 12 ) ;
#31 = DATE_TIME_ROLE ( 'creation_date' ) ;
#32 =( LENGTH_UNIT ( ) NAMED_UNIT ( * ) SI_UNIT ( .MILLI., .METRE. ) );
#33 = PERSON ( 'UNSPECIFIED', 'UNSPECIFIED', 'UNSPECIFIED', ('UNSPECIFIED'), ('UNSPECIFIED'), ('UNSPECIFIED') ) ;
#34 = EDGE_LOOP ( 'NONE', ( #110 ) ) ;
#35 = EDGE_LOOP ( 'NONE', ( #194 ) ) ;
#36 = MANIFOLD_SOLID_BREP ( 'Corps-Déplacer/Copier1[1]', #190 ) ;
#37 = AXIS2_PLACEMENT_3D ( 'NONE', #133, #52, #3 ) ;
#38 = DIRECTION ( 'NONE',  ( -3.491481338843133355E-15, 1.224646799147353207E-16, -1.000000000000000000 ) ) ;
#39 = DIRECTION ( 'NONE',  ( -3.491481338843133355E-15, 1.224646799147353207E-16, -1.000000000000000000 ) ) ;
#40 = FACE_OUTER_BOUND ( 'NONE', #34, .T. ) ;
#41 = CC_DESIGN_APPROVAL ( #12, ( #63 ) ) ;
#42 = APPROVAL_ROLE ( '' ) ;
#43 = APPROVAL_ROLE ( '' ) ;
#44 = APPROVAL_PERSON_ORGANIZATION ( #25, #175, #6 ) ;
#45 = CARTESIAN_POINT ( 'NONE',  ( 8.728703347107833388E-14, -3.061616997868383043E-15, 25.00000000000000000 ) ) ;
#46 = CALENDAR_DATE ( 2021, 8, 12 ) ;
#47 = PRODUCT ( '372624', '372624', '', ( #145 ) ) ;
#48 = DIRECTION ( 'NONE',  ( 3.491481338843133355E-15, -1.224646799147353207E-16, 1.000000000000000000 ) ) ;
#49 = EDGE_CURVE ( 'NONE', #147, #147, #191, .T. ) ;
#50 = AXIS2_PLACEMENT_3D ( 'NONE', #74, #26, #165 ) ;
#51 = VERTEX_POINT ( 'NONE', #91 ) ;
#52 = DIRECTION ( 'NONE',  ( -3.491481338843133355E-15, 1.224646799147353207E-16, -1.000000000000000000 ) ) ;
#53 = FACE_OUTER_BOUND ( 'NONE', #7, .T. ) ;
#54 = AXIS2_PLACEMENT_3D ( 'NONE', #179, #38, #93 ) ;
#55 = ORIENTED_EDGE ( 'NONE', *, *, #196, .T. ) ;
#56 = PLANE ( 'NONE',  #168 ) ;
#57 = DIRECTION ( 'NONE',  ( -3.491481338843133355E-15, 1.224646799147353207E-16, -1.000000000000000000 ) ) ;
#58 = CALENDAR_DATE ( 2021, 8, 12 ) ;
#59 = DIRECTION ( 'NONE',  ( -3.491481338843133355E-15, 1.224646799147353207E-16, -1.000000000000000000 ) ) ;
#60 = DATE_AND_TIME ( #172, #154 ) ;
#61 = CC_DESIGN_PERSON_AND_ORGANIZATION_ASSIGNMENT ( #119, #149, ( #47 ) ) ;
#62 = PERSON_AND_ORGANIZATION ( #33, #181 ) ;
#63 = PRODUCT_DEFINITION_FORMATION_WITH_SPECIFIED_SOURCE ( 'ANY', '', #47, .NOT_KNOWN. ) ;
#64 = APPROVAL_STATUS ( 'not_yet_approved' ) ;
#65 = AXIS2_PLACEMENT_3D ( 'NONE', #199, #59, #108 ) ;
#66 = PERSON_AND_ORGANIZATION_ROLE ( 'design_supplier' ) ;
#67 = CARTESIAN_POINT ( 'NONE',  ( 2.793185071074506684E-13, -9.797174393178826052E-15, 80.00000000000000000 ) ) ;
#68 = CARTESIAN_POINT ( 'NONE',  ( 8.728703347107833388E-14, 3.999999999999991562, 25.00000000000000000 ) ) ;
#69 = COORDINATED_UNIVERSAL_TIME_OFFSET ( 1, 0, .AHEAD. ) ;
#70 = EDGE_CURVE ( 'NONE', #51, #51, #13, .T. ) ;
#71 = CIRCLE ( 'NONE', #135, 3.200000000000003286 ) ;
#72 = FACE_OUTER_BOUND ( 'NONE', #23, .T. ) ;
#73 = APPROVAL_DATE_TIME ( #27, #175 ) ;
#74 = CARTESIAN_POINT ( 'NONE',  ( 0.0000000000000000000, 0.0000000000000000000, 0.0000000000000000000 ) ) ;
#75 = CARTESIAN_POINT ( 'NONE',  ( 0.0000000000000000000, 0.0000000000000000000, 0.0000000000000000000 ) ) ;
#76 = CARTESIAN_POINT ( 'NONE',  ( 4.275662058086250086E-31, 3.999999999999990674, 1.224598284550174978E-16 ) ) ;
#77 = AXIS2_PLACEMENT_3D ( 'NONE', #67, #39, #130 ) ;
#78 = CARTESIAN_POINT ( 'NONE',  ( -1.282766372550154493E-30, 4.499338761231704644E-32, -3.673988912039226017E-16 ) ) ;
#79 = FACE_BOUND ( 'NONE', #192, .T. ) ;
#80 = CARTESIAN_POINT ( 'NONE',  ( -6.413831862750772464E-31, 2.249669380615852322E-32, -1.836994456019613009E-16 ) ) ;
#81 = LOCAL_TIME ( 9, 40, 38.00000000000000000, #9 ) ;
#82 = EDGE_LOOP ( 'NONE', ( #134 ) ) ;
#83 = CC_DESIGN_SECURITY_CLASSIFICATION ( #90, ( #63 ) ) ;
#84 = COORDINATED_UNIVERSAL_TIME_OFFSET ( 1, 0, .AHEAD. ) ;
#85 = LOCAL_TIME ( 9, 40, 38.00000000000000000, #69 ) ;
#86 = ADVANCED_FACE ( 'NONE', ( #176 ), #56, .F. ) ;
#87 = VERTEX_POINT ( 'NONE', #17 ) ;
#88 = PLANE ( 'NONE',  #174 ) ;
#89 =( NAMED_UNIT ( * ) PLANE_ANGLE_UNIT ( ) SI_UNIT ( $, .RADIAN. ) );
#90 = SECURITY_CLASSIFICATION ( '', '', #113 ) ;
#91 = CARTESIAN_POINT ( 'NONE',  ( 2.765253220363762122E-13, 3.999999999999993339, 79.20000000000001705 ) ) ;
#92 = ORIENTED_EDGE ( 'NONE', *, *, #49, .F. ) ;
#93 = DIRECTION ( 'NONE',  ( 4.275831445896958607E-31, 1.000000000000000000, 1.224646799147353207E-16 ) ) ;
#94 = CC_DESIGN_PERSON_AND_ORGANIZATION_ASSIGNMENT ( #202, #170, ( #4 ) ) ;
#95 = APPROVAL_STATUS ( 'not_yet_approved' ) ;
#96 = AXIS2_PLACEMENT_3D ( 'NONE', #78, #129, #193 ) ;
#97 = ORIENTED_EDGE ( 'NONE', *, *, #196, .F. ) ;
#98 = CIRCLE ( 'NONE', #10, 3.999999999999994671 ) ;
#99 = DIRECTION ( 'NONE',  ( 0.0000000000000000000, 1.000000000000000000, 0.0000000000000000000 ) ) ;
#100 = CC_DESIGN_PERSON_AND_ORGANIZATION_ASSIGNMENT ( #164, #184, ( #90 ) ) ;
#101 = DIRECTION ( 'NONE',  ( 0.0000000000000000000, 1.000000000000000000, 0.0000000000000000000 ) ) ;
#102 = AXIS2_PLACEMENT_3D ( 'NONE', #167, #57, #101 ) ;
#103 = DIRECTION ( 'NONE',  ( 0.0000000000000000000, 1.000000000000000000, 0.0000000000000000000 ) ) ;
#104 =( NAMED_UNIT ( * ) SI_UNIT ( $, .STERADIAN. ) SOLID_ANGLE_UNIT ( ) );
#105 = MANIFOLD_SOLID_BREP ( 'Corps-Déplacer/Copier1[2]', #116 ) ;
#106 = DATE_AND_TIME ( #186, #5 ) ;
#107 = PERSON_AND_ORGANIZATION ( #33, #181 ) ;
#108 = DIRECTION ( 'NONE',  ( 4.275831445896958607E-31, 1.000000000000000000, 1.224646799147353207E-16 ) ) ;
#109 = DATE_AND_TIME ( #58, #124 ) ;
#110 = ORIENTED_EDGE ( 'NONE', *, *, #166, .F. ) ;
#111 = EDGE_LOOP ( 'NONE', ( #114 ) ) ;
#112 = DIRECTION ( 'NONE',  ( 1.000000000000000000, 0.0000000000000000000, 0.0000000000000000000 ) ) ;
#113 = SECURITY_CLASSIFICATION_LEVEL ( 'unclassified' ) ;
#114 = ORIENTED_EDGE ( 'NONE', *, *, #166, .T. ) ;
#115 = ADVANCED_FACE ( 'NONE', ( #22, #79 ), #131, .T. ) ;
#116 = CLOSED_SHELL ( 'NONE', ( #86, #160, #141 ) ) ;
#117 = CYLINDRICAL_SURFACE ( 'NONE', #54, 3.999999999999998224 ) ;
#118 = EDGE_LOOP ( 'NONE', ( #158 ) ) ;
#119 = PERSON_AND_ORGANIZATION ( #33, #181 ) ;
#120 = PERSON_AND_ORGANIZATION ( #33, #181 ) ;
#121 = SHAPE_DEFINITION_REPRESENTATION ( #188, #197 ) ;
#122 = APPLICATION_PROTOCOL_DEFINITION ( 'international standard', 'config_control_design', 1994, #152 ) ;
#123 = CC_DESIGN_PERSON_AND_ORGANIZATION_ASSIGNMENT ( #62, #66, ( #63 ) ) ;
#124 = LOCAL_TIME ( 9, 40, 38.00000000000000000, #200 ) ;
#125 = CIRCLE ( 'NONE', #102, 3.999999999999994671 ) ;
#126 = CC_DESIGN_DATE_AND_TIME_ASSIGNMENT ( #106, #31, ( #4 ) ) ;
#127 = EDGE_LOOP ( 'NONE', ( #20 ) ) ;
#128 = UNCERTAINTY_MEASURE_WITH_UNIT (LENGTH_MEASURE( 1.000000000000000082E-05 ), #32, 'distance_accuracy_value', 'NONE');
#129 = DIRECTION ( 'NONE',  ( -3.491481338843133355E-15, 1.224646799147353207E-16, -1.000000000000000000 ) ) ;
#130 = DIRECTION ( 'NONE',  ( 0.0000000000000000000, 1.000000000000000000, 0.0000000000000000000 ) ) ;
#131 = CONICAL_SURFACE ( 'NONE', #77, 3.200000000000003286, 0.7853981633974597143 ) ;
#132 = CARTESIAN_POINT ( 'NONE',  ( 8.728703347107833388E-14, 3.999999999999991562, 25.00000000000000000 ) ) ;
#133 = CARTESIAN_POINT ( 'NONE',  ( 2.765253220363762122E-13, -9.699202649247039195E-15, 79.20000000000001705 ) ) ;
#134 = ORIENTED_EDGE ( 'NONE', *, *, #198, .F. ) ;
#135 = AXIS2_PLACEMENT_3D ( 'NONE', #28, #11, #99 ) ;
#136 = ADVANCED_FACE ( 'NONE', ( #180, #53 ), #117, .T. ) ;
#137 = PLANE ( 'NONE',  #65 ) ;
#138 = APPROVAL_DATE_TIME ( #109, #183 ) ;
#139 = AXIS2_PLACEMENT_3D ( 'NONE', #162, #48, #24 ) ;
#140 = PRODUCT_RELATED_PRODUCT_CATEGORY ( 'detail', '', ( #47 ) ) ;
#141 = ADVANCED_FACE ( 'NONE', ( #40 ), #163, .T. ) ;
#142 = CC_DESIGN_PERSON_AND_ORGANIZATION_ASSIGNMENT ( #120, #18, ( #63 ) ) ;
#143 = DIRECTION ( 'NONE',  ( -4.275831445896958607E-31, -1.000000000000000000, -1.224646799147353207E-16 ) ) ;
#144 = APPROVAL_PERSON_ORGANIZATION ( #171, #12, #43 ) ;
#145 = MECHANICAL_CONTEXT ( 'NONE', #152, 'mechanical' ) ;
#146 = EDGE_LOOP ( 'NONE', ( #92 ) ) ;
#147 = VERTEX_POINT ( 'NONE', #76 ) ;
#148 = VERTEX_POINT ( 'NONE', #68 ) ;
#149 = PERSON_AND_ORGANIZATION_ROLE ( 'design_owner' ) ;
#150 = DIRECTION ( 'NONE',  ( 3.491481338843133355E-15, -1.224646799147353207E-16, 1.000000000000000000 ) ) ;
#151 = ORIENTED_EDGE ( 'NONE', *, *, #70, .T. ) ;
#152 = APPLICATION_CONTEXT ( 'configuration controlled 3d designs of mechanical parts and assemblies' ) ;
#153 = APPROVAL_DATE_TIME ( #173, #12 ) ;
#154 = LOCAL_TIME ( 9, 40, 38.00000000000000000, #169 ) ;
#155 = ADVANCED_FACE ( 'NONE', ( #189 ), #88, .F. ) ;
#156 = FACE_OUTER_BOUND ( 'NONE', #111, .T. ) ;
#157 = CARTESIAN_POINT ( 'NONE',  ( 8.728703347107833388E-14, 2.999519565323706458E-32, 25.00000000000000000 ) ) ;
#158 = ORIENTED_EDGE ( 'NONE', *, *, #198, .T. ) ;
#159 = CC_DESIGN_APPROVAL ( #175, ( #4 ) ) ;
#160 = ADVANCED_FACE ( 'NONE', ( #187, #156 ), #15, .T. ) ;
#161 = DIRECTION ( 'NONE',  ( -4.275831445896958607E-31, -1.000000000000000000, -1.224646799147353207E-16 ) ) ;
#162 = CARTESIAN_POINT ( 'NONE',  ( 8.728703347107833388E-14, 2.999519565323706458E-32, 25.00000000000000000 ) ) ;
#163 = PLANE ( 'NONE',  #139 ) ;
#164 = PERSON_AND_ORGANIZATION ( #33, #181 ) ;
#165 = DIRECTION ( 'NONE',  ( 4.275831445896958607E-31, 1.000000000000000000, 1.224646799147353207E-16 ) ) ;
#166 = EDGE_CURVE ( 'NONE', #178, #178, #98, .T. ) ;
#167 = CARTESIAN_POINT ( 'NONE',  ( 8.728703347107833388E-14, -3.061616997868383043E-15, 25.00000000000000000 ) ) ;
#168 = AXIS2_PLACEMENT_3D ( 'NONE', #80, #150, #161 ) ;
#169 = COORDINATED_UNIVERSAL_TIME_OFFSET ( 1, 0, .AHEAD. ) ;
#170 = PERSON_AND_ORGANIZATION_ROLE ( 'creator' ) ;
#171 = PERSON_AND_ORGANIZATION ( #33, #181 ) ;
#172 = CALENDAR_DATE ( 2021, 8, 12 ) ;
#173 = DATE_AND_TIME ( #46, #81 ) ;
#174 = AXIS2_PLACEMENT_3D ( 'NONE', #157, #19, #143 ) ;
#175 = APPROVAL ( #95, 'UNSPECIFIED' ) ;
#176 = FACE_OUTER_BOUND ( 'NONE', #127, .T. ) ;
#177 =( GEOMETRIC_REPRESENTATION_CONTEXT ( 3 ) GLOBAL_UNCERTAINTY_ASSIGNED_CONTEXT ( ( #128 ) ) GLOBAL_UNIT_ASSIGNED_CONTEXT ( ( #32, #89, #104 ) ) REPRESENTATION_CONTEXT ( 'NONE', 'WORKASPACE' ) );
#178 = VERTEX_POINT ( 'NONE', #132 ) ;
#179 = CARTESIAN_POINT ( 'NONE',  ( 0.0000000000000000000, 0.0000000000000000000, 0.0000000000000000000 ) ) ;
#180 = FACE_OUTER_BOUND ( 'NONE', #82, .T. ) ;
#181 = ORGANIZATION ( 'UNSPECIFIED', 'UNSPECIFIED', '' ) ;
#182 = DIRECTION ( 'NONE',  ( -3.491481338843133355E-15, 1.224646799147353207E-16, -1.000000000000000000 ) ) ;
#183 = APPROVAL ( #29, 'UNSPECIFIED' ) ;
#184 = PERSON_AND_ORGANIZATION_ROLE ( 'classification_officer' ) ;
#185 = AXIS2_PLACEMENT_3D ( 'NONE', #75, #16, #112 ) ;
#186 = CALENDAR_DATE ( 2021, 8, 12 ) ;
#187 = FACE_OUTER_BOUND ( 'NONE', #146, .T. ) ;
#188 = PRODUCT_DEFINITION_SHAPE ( 'NONE', 'NONE',  #4 ) ;
#189 = FACE_OUTER_BOUND ( 'NONE', #118, .T. ) ;
#190 = CLOSED_SHELL ( 'NONE', ( #155, #136, #115, #203 ) ) ;
#191 = CIRCLE ( 'NONE', #96, 3.999999999999990674 ) ;
#192 = EDGE_LOOP ( 'NONE', ( #55 ) ) ;
#193 = DIRECTION ( 'NONE',  ( 4.275831445896958607E-31, 1.000000000000000000, 1.224646799147353207E-16 ) ) ;
#194 = ORIENTED_EDGE ( 'NONE', *, *, #70, .F. ) ;
#195 = APPLICATION_PROTOCOL_DEFINITION ( 'international standard', 'config_control_design', 1994, #21 ) ;
#196 = EDGE_CURVE ( 'NONE', #87, #87, #71, .T. ) ;
#197 = ADVANCED_BREP_SHAPE_REPRESENTATION ( '372624', ( #36, #105, #185 ), #177 ) ;
#198 = EDGE_CURVE ( 'NONE', #148, #148, #125, .T. ) ;
#199 = CARTESIAN_POINT ( 'NONE',  ( 2.793185071074506684E-13, 2.399615652258959583E-32, 80.00000000000000000 ) ) ;
#200 = COORDINATED_UNIVERSAL_TIME_OFFSET ( 1, 0, .AHEAD. ) ;
#201 = CC_DESIGN_APPROVAL ( #183, ( #90 ) ) ;
#202 = PERSON_AND_ORGANIZATION ( #33, #181 ) ;
#203 = ADVANCED_FACE ( 'NONE', ( #72 ), #137, .F. ) ;
ENDSEC;
END-ISO-10303-21;
