ISO-10303-21;
HEADER;
FILE_DESCRIPTION (( 'STEP AP203' ),
    '1' );
FILE_NAME ('372623.step',
    '2021-12-08T08:40:38',
    ( '' ),
    ( '' ),
    'SwSTEP 2.0',
    'SolidWorks 2019',
    '' );
FILE_SCHEMA (( 'CONFIG_CONTROL_DESIGN' ));
ENDSEC;

DATA;
#1 = EDGE_CURVE ( 'NONE', #14, #14, #159, .T. ) ;
#2 = AXIS2_PLACEMENT_3D ( 'NONE', #30, #150, #169 ) ;
#3 = EDGE_LOOP ( 'NONE', ( #177 ) ) ;
#4 = UNCERTAINTY_MEASURE_WITH_UNIT (LENGTH_MEASURE( 1.000000000000000082E-05 ), #113, 'distance_accuracy_value', 'NONE');
#5 = COORDINATED_UNIVERSAL_TIME_OFFSET ( 1, 0, .AHEAD. ) ;
#6 = CARTESIAN_POINT ( 'NONE',  ( 2.094888803305880013E-13, 2.399615652258959583E-32, 60.00000000000000000 ) ) ;
#7 = APPROVAL_STATUS ( 'not_yet_approved' ) ;
#8 = FACE_BOUND ( 'NONE', #141, .T. ) ;
#9 = CC_DESIGN_APPROVAL ( #161, ( #185 ) ) ;
#10 = PERSON_AND_ORGANIZATION ( #85, #68 ) ;
#11 = CARTESIAN_POINT ( 'NONE',  ( 8.030407079339205455E-14, 2.999519565323706458E-32, 23.00000000000000000 ) ) ;
#12 = CARTESIAN_POINT ( 'NONE',  ( 8.030407079339205455E-14, -2.816687638038912352E-15, 23.00000000000000000 ) ) ;
#13 = DIRECTION ( 'NONE',  ( -3.491481338843133355E-15, 1.224646799147353207E-16, -1.000000000000000000 ) ) ;
#14 = VERTEX_POINT ( 'NONE', #115 ) ;
#15 = APPROVAL_PERSON_ORGANIZATION ( #134, #95, #151 ) ;
#16 = CALENDAR_DATE ( 2021, 8, 12 ) ;
#17 = DIRECTION ( 'NONE',  ( 0.0000000000000000000, 1.000000000000000000, 0.0000000000000000000 ) ) ;
#18 = CIRCLE ( 'NONE', #120, 3.199999999999997957 ) ;
#19 = PERSON_AND_ORGANIZATION ( #85, #68 ) ;
#20 = EDGE_LOOP ( 'NONE', ( #176 ) ) ;
#21 = COORDINATED_UNIVERSAL_TIME_OFFSET ( 1, 0, .AHEAD. ) ;
#22 = ORIENTED_EDGE ( 'NONE', *, *, #1, .F. ) ;
#23 = AXIS2_PLACEMENT_3D ( 'NONE', #74, #196, #92 ) ;
#24 = ORIENTED_EDGE ( 'NONE', *, *, #186, .F. ) ;
#25 = ADVANCED_FACE ( 'NONE', ( #60 ), #143, .F. ) ;
#26 = CARTESIAN_POINT ( 'NONE',  ( 0.0000000000000000000, 0.0000000000000000000, 0.0000000000000000000 ) ) ;
#27 = ORIENTED_EDGE ( 'NONE', *, *, #1, .T. ) ;
#28 = PERSON_AND_ORGANIZATION ( #85, #68 ) ;
#29 = EDGE_LOOP ( 'NONE', ( #162 ) ) ;
#30 = CARTESIAN_POINT ( 'NONE',  ( 0.0000000000000000000, 0.0000000000000000000, 0.0000000000000000000 ) ) ;
#31 = APPROVAL_PERSON_ORGANIZATION ( #178, #161, #73 ) ;
#32 = PERSON_AND_ORGANIZATION ( #85, #68 ) ;
#33 = APPROVAL_STATUS ( 'not_yet_approved' ) ;
#34 = CARTESIAN_POINT ( 'NONE',  ( -6.413786353521998128E-31, 2.249653418127172114E-32, -1.836981421658447292E-16 ) ) ;
#35 = DIRECTION ( 'NONE',  ( 0.0000000000000000000, 1.000000000000000000, 0.0000000000000000000 ) ) ;
#36 = APPROVAL_DATE_TIME ( #105, #95 ) ;
#37 = CC_DESIGN_PERSON_AND_ORGANIZATION_ASSIGNMENT ( #97, #82, ( #202 ) ) ;
#38 = APPROVAL ( #33, 'UNSPECIFIED' ) ;
#39 = VERTEX_POINT ( 'NONE', #172 ) ;
#40 = ADVANCED_FACE ( 'NONE', ( #89, #8 ), #64, .T. ) ;
#41 = CC_DESIGN_DATE_AND_TIME_ASSIGNMENT ( #140, #201, ( #202 ) ) ;
#42 = ORIENTED_EDGE ( 'NONE', *, *, #57, .F. ) ;
#43 = DATE_AND_TIME ( #61, #163 ) ;
#44 = PERSON_AND_ORGANIZATION_ROLE ( 'design_owner' ) ;
#45 = LOCAL_TIME ( 9, 40, 38.00000000000000000, #183 ) ;
#46 = DIRECTION ( 'NONE',  ( -4.275831445896958607E-31, -1.000000000000000000, -1.224646799147353207E-16 ) ) ;
#47 = DIRECTION ( 'NONE',  ( 3.491481338843133355E-15, -1.224646799147353207E-16, 1.000000000000000000 ) ) ;
#48 = VERTEX_POINT ( 'NONE', #103 ) ;
#49 = PRODUCT ( '372623', '372623', '', ( #88 ) ) ;
#50 = SHAPE_DEFINITION_REPRESENTATION ( #109, #168 ) ;
#51 = DIRECTION ( 'NONE',  ( 4.275831445896958607E-31, 1.000000000000000000, 1.224646799147352961E-16 ) ) ;
#52 = AXIS2_PLACEMENT_3D ( 'NONE', #124, #194, #129 ) ;
#53 = CARTESIAN_POINT ( 'NONE',  ( 8.030407079339205455E-14, 3.999999999999990674, 23.00000000000000000 ) ) ;
#54 = EDGE_CURVE ( 'NONE', #48, #48, #18, .T. ) ;
#55 = AXIS2_PLACEMENT_3D ( 'NONE', #12, #76, #167 ) ;
#56 = APPROVAL_DATE_TIME ( #130, #161 ) ;
#57 = EDGE_CURVE ( 'NONE', #39, #39, #171, .T. ) ;
#58 = CARTESIAN_POINT ( 'NONE',  ( 2.066956952595134694E-13, 3.999999999999990674, 59.19999999999999574 ) ) ;
#59 = PERSON_AND_ORGANIZATION ( #85, #68 ) ;
#60 = FACE_OUTER_BOUND ( 'NONE', #20, .T. ) ;
#61 = CALENDAR_DATE ( 2021, 8, 12 ) ;
#62 = EDGE_LOOP ( 'NONE', ( #22 ) ) ;
#63 = FACE_OUTER_BOUND ( 'NONE', #71, .T. ) ;
#64 = CONICAL_SURFACE ( 'NONE', #23, 3.199999999999997957, 0.7853981633974467247 ) ;
#65 = DIRECTION ( 'NONE',  ( -4.275831445896958607E-31, -1.000000000000000000, -1.224646799147353207E-16 ) ) ;
#66 = CYLINDRICAL_SURFACE ( 'NONE', #112, 3.999999999999991562 ) ;
#67 = DIRECTION ( 'NONE',  ( -3.491481338843133355E-15, 1.224646799147353207E-16, -1.000000000000000000 ) ) ;
#68 = ORGANIZATION ( 'UNSPECIFIED', 'UNSPECIFIED', '' ) ;
#69 = CC_DESIGN_PERSON_AND_ORGANIZATION_ASSIGNMENT ( #10, #44, ( #49 ) ) ;
#70 = PRODUCT_DEFINITION ( 'UNKNOWN', '', #185, #125 ) ;
#71 = EDGE_LOOP ( 'NONE', ( #84 ) ) ;
#72 = PERSON_AND_ORGANIZATION_ROLE ( 'creator' ) ;
#73 = APPROVAL_ROLE ( '' ) ;
#74 = CARTESIAN_POINT ( 'NONE',  ( 2.094888803305880013E-13, -7.347880794884118356E-15, 60.00000000000000000 ) ) ;
#75 = CALENDAR_DATE ( 2021, 8, 12 ) ;
#76 = DIRECTION ( 'NONE',  ( -3.491481338843133355E-15, 1.224646799147353207E-16, -1.000000000000000000 ) ) ;
#77 = FACE_OUTER_BOUND ( 'NONE', #3, .T. ) ;
#78 = CC_DESIGN_PERSON_AND_ORGANIZATION_ASSIGNMENT ( #19, #157, ( #185 ) ) ;
#79 = AXIS2_PLACEMENT_3D ( 'NONE', #96, #47, #46 ) ;
#80 = DIRECTION ( 'NONE',  ( 3.491481338843133355E-15, -1.224646799147353207E-16, 1.000000000000000000 ) ) ;
#81 = LOCAL_TIME ( 9, 40, 38.00000000000000000, #21 ) ;
#82 = PERSON_AND_ORGANIZATION_ROLE ( 'classification_officer' ) ;
#83 = CIRCLE ( 'NONE', #153, 3.999999999999997335 ) ;
#84 = ORIENTED_EDGE ( 'NONE', *, *, #155, .T. ) ;
#85 = PERSON ( 'UNSPECIFIED', 'UNSPECIFIED', 'UNSPECIFIED', ('UNSPECIFIED'), ('UNSPECIFIED'), ('UNSPECIFIED') ) ;
#86 = ADVANCED_FACE ( 'NONE', ( #63 ), #182, .F. ) ;
#87 = DIRECTION ( 'NONE',  ( 1.000000000000000000, 0.0000000000000000000, 0.0000000000000000000 ) ) ;
#88 = MECHANICAL_CONTEXT ( 'NONE', #203, 'mechanical' ) ;
#89 = FACE_OUTER_BOUND ( 'NONE', #192, .T. ) ;
#90 = LOCAL_TIME ( 9, 40, 38.00000000000000000, #128 ) ;
#91 =( NAMED_UNIT ( * ) PLANE_ANGLE_UNIT ( ) SI_UNIT ( $, .RADIAN. ) );
#92 = DIRECTION ( 'NONE',  ( 0.0000000000000000000, 1.000000000000000000, 0.0000000000000000000 ) ) ;
#93 = APPROVAL_ROLE ( '' ) ;
#94 = FACE_OUTER_BOUND ( 'NONE', #62, .T. ) ;
#95 = APPROVAL ( #104, 'UNSPECIFIED' ) ;
#96 = CARTESIAN_POINT ( 'NONE',  ( 8.030407079339205455E-14, 2.999519565323706458E-32, 23.00000000000000000 ) ) ;
#97 = PERSON_AND_ORGANIZATION ( #85, #68 ) ;
#98 = EDGE_LOOP ( 'NONE', ( #27 ) ) ;
#99 = LOCAL_TIME ( 9, 40, 38.00000000000000000, #126 ) ;
#100 = DIRECTION ( 'NONE',  ( -4.275831445896958607E-31, -1.000000000000000000, -1.224646799147353207E-16 ) ) ;
#101 = ADVANCED_FACE ( 'NONE', ( #102, #133 ), #132, .T. ) ;
#102 = FACE_OUTER_BOUND ( 'NONE', #29, .T. ) ;
#103 = CARTESIAN_POINT ( 'NONE',  ( 2.094888803305880013E-13, 3.199999999999990408, 60.00000000000000000 ) ) ;
#104 = APPROVAL_STATUS ( 'not_yet_approved' ) ;
#105 = DATE_AND_TIME ( #16, #45 ) ;
#106 = DIRECTION ( 'NONE',  ( -3.491481338843133355E-15, 1.224646799147353207E-16, -1.000000000000000000 ) ) ;
#107 =( GEOMETRIC_REPRESENTATION_CONTEXT ( 3 ) GLOBAL_UNCERTAINTY_ASSIGNED_CONTEXT ( ( #4 ) ) GLOBAL_UNIT_ASSIGNED_CONTEXT ( ( #113, #91, #148 ) ) REPRESENTATION_CONTEXT ( 'NONE', 'WORKASPACE' ) );
#108 = CC_DESIGN_PERSON_AND_ORGANIZATION_ASSIGNMENT ( #59, #72, ( #70 ) ) ;
#109 = PRODUCT_DEFINITION_SHAPE ( 'NONE', 'NONE',  #70 ) ;
#110 = DATE_TIME_ROLE ( 'creation_date' ) ;
#111 = DIRECTION ( 'NONE',  ( -3.491481338843133355E-15, 1.224646799147353207E-16, -1.000000000000000000 ) ) ;
#112 = AXIS2_PLACEMENT_3D ( 'NONE', #184, #67, #51 ) ;
#113 =( LENGTH_UNIT ( ) NAMED_UNIT ( * ) SI_UNIT ( .MILLI., .METRE. ) );
#114 = DIRECTION ( 'NONE',  ( -3.491481338843133355E-15, 1.224646799147353207E-16, -1.000000000000000000 ) ) ;
#115 = CARTESIAN_POINT ( 'NONE',  ( 4.275753076543798760E-31, 3.999999999999990674, 1.224624353272506412E-16 ) ) ;
#116 = CARTESIAN_POINT ( 'NONE',  ( 8.030407079339205455E-14, -2.816687638038912352E-15, 23.00000000000000000 ) ) ;
#117 = ADVANCED_FACE ( 'NONE', ( #180 ), #152, .F. ) ;
#118 = CARTESIAN_POINT ( 'NONE',  ( 2.066956952595134694E-13, -7.249909050952329922E-15, 59.19999999999999574 ) ) ;
#119 = APPLICATION_CONTEXT ( 'configuration controlled 3d designs of mechanical parts and assemblies' ) ;
#120 = AXIS2_PLACEMENT_3D ( 'NONE', #197, #114, #149 ) ;
#121 = CC_DESIGN_PERSON_AND_ORGANIZATION_ASSIGNMENT ( #32, #158, ( #185 ) ) ;
#122 = CC_DESIGN_SECURITY_CLASSIFICATION ( #202, ( #185 ) ) ;
#123 = EDGE_LOOP ( 'NONE', ( #160 ) ) ;
#124 = CARTESIAN_POINT ( 'NONE',  ( -1.282757270704399626E-30, 4.499306836254344228E-32, -3.673962843316894584E-16 ) ) ;
#125 = DESIGN_CONTEXT ( 'detailed design', #119, 'design' ) ;
#126 = COORDINATED_UNIVERSAL_TIME_OFFSET ( 1, 0, .AHEAD. ) ;
#127 = PRODUCT_RELATED_PRODUCT_CATEGORY ( 'detail', '', ( #49 ) ) ;
#128 = COORDINATED_UNIVERSAL_TIME_OFFSET ( 1, 0, .AHEAD. ) ;
#129 = DIRECTION ( 'NONE',  ( 4.275831445896958607E-31, 1.000000000000000000, 1.224646799147353207E-16 ) ) ;
#130 = DATE_AND_TIME ( #75, #90 ) ;
#131 = DIRECTION ( 'NONE',  ( 0.0000000000000000000, 0.0000000000000000000, 1.000000000000000000 ) ) ;
#132 = CYLINDRICAL_SURFACE ( 'NONE', #2, 3.999999999999994671 ) ;
#133 = FACE_OUTER_BOUND ( 'NONE', #123, .T. ) ;
#134 = PERSON_AND_ORGANIZATION ( #85, #68 ) ;
#135 = AXIS2_PLACEMENT_3D ( 'NONE', #11, #165, #100 ) ;
#136 = FACE_OUTER_BOUND ( 'NONE', #139, .T. ) ;
#137 = CLOSED_SHELL ( 'NONE', ( #86, #101, #40, #25 ) ) ;
#138 = ADVANCED_FACE ( 'NONE', ( #136 ), #200, .T. ) ;
#139 = EDGE_LOOP ( 'NONE', ( #42 ) ) ;
#140 = DATE_AND_TIME ( #188, #81 ) ;
#141 = EDGE_LOOP ( 'NONE', ( #146 ) ) ;
#142 = AXIS2_PLACEMENT_3D ( 'NONE', #6, #111, #164 ) ;
#143 = PLANE ( 'NONE',  #142 ) ;
#144 = DATE_AND_TIME ( #195, #99 ) ;
#145 = APPLICATION_PROTOCOL_DEFINITION ( 'international standard', 'config_control_design', 1994, #203 ) ;
#146 = ORIENTED_EDGE ( 'NONE', *, *, #54, .T. ) ;
#147 = AXIS2_PLACEMENT_3D ( 'NONE', #116, #13, #35 ) ;
#148 =( NAMED_UNIT ( * ) SI_UNIT ( $, .STERADIAN. ) SOLID_ANGLE_UNIT ( ) );
#149 = DIRECTION ( 'NONE',  ( 0.0000000000000000000, 1.000000000000000000, 0.0000000000000000000 ) ) ;
#150 = DIRECTION ( 'NONE',  ( -3.491481338843133355E-15, 1.224646799147353207E-16, -1.000000000000000000 ) ) ;
#151 = APPROVAL_ROLE ( '' ) ;
#152 = PLANE ( 'NONE',  #187 ) ;
#153 = AXIS2_PLACEMENT_3D ( 'NONE', #118, #106, #17 ) ;
#154 = CC_DESIGN_APPROVAL ( #95, ( #202 ) ) ;
#155 = EDGE_CURVE ( 'NONE', #156, #156, #181, .T. ) ;
#156 = VERTEX_POINT ( 'NONE', #53 ) ;
#157 = PERSON_AND_ORGANIZATION_ROLE ( 'design_supplier' ) ;
#158 = PERSON_AND_ORGANIZATION_ROLE ( 'creator' ) ;
#159 = CIRCLE ( 'NONE', #52, 3.999999999999990674 ) ;
#160 = ORIENTED_EDGE ( 'NONE', *, *, #186, .T. ) ;
#161 = APPROVAL ( #7, 'UNSPECIFIED' ) ;
#162 = ORIENTED_EDGE ( 'NONE', *, *, #155, .F. ) ;
#163 = LOCAL_TIME ( 9, 40, 38.00000000000000000, #5 ) ;
#164 = DIRECTION ( 'NONE',  ( 4.275831445896958607E-31, 1.000000000000000000, 1.224646799147353207E-16 ) ) ;
#165 = DIRECTION ( 'NONE',  ( 3.491481338843133355E-15, -1.224646799147353207E-16, 1.000000000000000000 ) ) ;
#166 = APPLICATION_PROTOCOL_DEFINITION ( 'international standard', 'config_control_design', 1994, #119 ) ;
#167 = DIRECTION ( 'NONE',  ( 0.0000000000000000000, 1.000000000000000000, 0.0000000000000000000 ) ) ;
#168 = ADVANCED_BREP_SHAPE_REPRESENTATION ( '372623', ( #174, #175, #170 ), #107 ) ;
#169 = DIRECTION ( 'NONE',  ( 4.275831445896959482E-31, 1.000000000000000000, 1.224646799147353454E-16 ) ) ;
#170 = AXIS2_PLACEMENT_3D ( 'NONE', #26, #131, #87 ) ;
#171 = CIRCLE ( 'NONE', #147, 3.999999999999993339 ) ;
#172 = CARTESIAN_POINT ( 'NONE',  ( 8.030407079339205455E-14, 3.999999999999990674, 23.00000000000000000 ) ) ;
#173 = ADVANCED_FACE ( 'NONE', ( #94, #77 ), #66, .T. ) ;
#174 = MANIFOLD_SOLID_BREP ( 'Corps-Déplacer/Copier1[1]', #137 ) ;
#175 = MANIFOLD_SOLID_BREP ( 'Corps-Déplacer/Copier1[2]', #199 ) ;
#176 = ORIENTED_EDGE ( 'NONE', *, *, #54, .F. ) ;
#177 = ORIENTED_EDGE ( 'NONE', *, *, #57, .T. ) ;
#178 = PERSON_AND_ORGANIZATION ( #85, #68 ) ;
#179 = APPROVAL_PERSON_ORGANIZATION ( #28, #38, #93 ) ;
#180 = FACE_OUTER_BOUND ( 'NONE', #98, .T. ) ;
#181 = CIRCLE ( 'NONE', #55, 3.999999999999993339 ) ;
#182 = PLANE ( 'NONE',  #79 ) ;
#183 = COORDINATED_UNIVERSAL_TIME_OFFSET ( 1, 0, .AHEAD. ) ;
#184 = CARTESIAN_POINT ( 'NONE',  ( 0.0000000000000000000, 0.0000000000000000000, 0.0000000000000000000 ) ) ;
#185 = PRODUCT_DEFINITION_FORMATION_WITH_SPECIFIED_SOURCE ( 'ANY', '', #49, .NOT_KNOWN. ) ;
#186 = EDGE_CURVE ( 'NONE', #189, #189, #83, .T. ) ;
#187 = AXIS2_PLACEMENT_3D ( 'NONE', #34, #80, #65 ) ;
#188 = CALENDAR_DATE ( 2021, 8, 12 ) ;
#189 = VERTEX_POINT ( 'NONE', #58 ) ;
#190 = CC_DESIGN_APPROVAL ( #38, ( #70 ) ) ;
#191 = SECURITY_CLASSIFICATION_LEVEL ( 'unclassified' ) ;
#192 = EDGE_LOOP ( 'NONE', ( #24 ) ) ;
#193 = APPROVAL_DATE_TIME ( #43, #38 ) ;
#194 = DIRECTION ( 'NONE',  ( -3.491481338843133355E-15, 1.224646799147353207E-16, -1.000000000000000000 ) ) ;
#195 = CALENDAR_DATE ( 2021, 8, 12 ) ;
#196 = DIRECTION ( 'NONE',  ( -3.491481338843133355E-15, 1.224646799147353207E-16, -1.000000000000000000 ) ) ;
#197 = CARTESIAN_POINT ( 'NONE',  ( 2.094888803305880013E-13, -7.347880794884118356E-15, 60.00000000000000000 ) ) ;
#198 = CC_DESIGN_DATE_AND_TIME_ASSIGNMENT ( #144, #110, ( #70 ) ) ;
#199 = CLOSED_SHELL ( 'NONE', ( #117, #173, #138 ) ) ;
#200 = PLANE ( 'NONE',  #135 ) ;
#201 = DATE_TIME_ROLE ( 'classification_date' ) ;
#202 = SECURITY_CLASSIFICATION ( '', '', #191 ) ;
#203 = APPLICATION_CONTEXT ( 'configuration controlled 3d designs of mechanical parts and assemblies' ) ;
ENDSEC;
END-ISO-10303-21;
