ISO-10303-21;
HEADER;
FILE_DESCRIPTION (( 'STEP AP203' ),
    '1' );
FILE_NAME ('372622.step',
    '2021-12-08T08:40:37',
    ( '' ),
    ( '' ),
    'SwSTEP 2.0',
    'SolidWorks 2019',
    '' );
FILE_SCHEMA (( 'CONFIG_CONTROL_DESIGN' ));
ENDSEC;

DATA;
#1 = AXIS2_PLACEMENT_3D ( 'NONE', #42, #187, #172 ) ;
#2 = DIRECTION ( 'NONE',  ( -4.275831445896958607E-31, -1.000000000000000000, -1.224646799147353207E-16 ) ) ;
#3 = PERSON_AND_ORGANIZATION_ROLE ( 'design_supplier' ) ;
#4 = APPROVAL_PERSON_ORGANIZATION ( #150, #72, #50 ) ;
#5 = DIRECTION ( 'NONE',  ( 0.0000000000000000000, 1.000000000000000000, 0.0000000000000000000 ) ) ;
#6 =( GEOMETRIC_REPRESENTATION_CONTEXT ( 3 ) GLOBAL_UNCERTAINTY_ASSIGNED_CONTEXT ( ( #115 ) ) GLOBAL_UNIT_ASSIGNED_CONTEXT ( ( #87, #165, #171 ) ) REPRESENTATION_CONTEXT ( 'NONE', 'WORKASPACE' ) );
#7 = DIRECTION ( 'NONE',  ( -3.491481338843133355E-15, 1.224646799147353207E-16, -1.000000000000000000 ) ) ;
#8 = APPROVAL_STATUS ( 'not_yet_approved' ) ;
#9 = CARTESIAN_POINT ( 'NONE',  ( 1.326762908760390423E-13, -4.850575782441041713E-15, 38.00000000000000000 ) ) ;
#10 = APPLICATION_PROTOCOL_DEFINITION ( 'international standard', 'config_control_design', 1994, #145 ) ;
#11 = DIRECTION ( 'NONE',  ( 0.0000000000000000000, -1.000000000000000000, 0.0000000000000000000 ) ) ;
#12 = VERTEX_POINT ( 'NONE', #123 ) ;
#13 = LOCAL_TIME ( 9, 40, 37.00000000000000000, #15 ) ;
#14 = PRODUCT ( '372622', '372622', '', ( #199 ) ) ;
#15 = COORDINATED_UNIVERSAL_TIME_OFFSET ( 1, 0, .AHEAD. ) ;
#16 = ORGANIZATION ( 'UNSPECIFIED', 'UNSPECIFIED', '' ) ;
#17 = DIRECTION ( 'NONE',  ( 3.491481338843133355E-15, -1.276467311168695266E-16, 1.000000000000000000 ) ) ;
#18 = APPROVAL_DATE_TIME ( #180, #161 ) ;
#19 = APPROVAL_STATUS ( 'not_yet_approved' ) ;
#20 = AXIS2_PLACEMENT_3D ( 'NONE', #198, #27, #100 ) ;
#21 = EDGE_LOOP ( 'NONE', ( #43 ) ) ;
#22 = PRODUCT_DEFINITION ( 'UNKNOWN', '', #47, #211 ) ;
#23 = EDGE_LOOP ( 'NONE', ( #197 ) ) ;
#24 = ORIENTED_EDGE ( 'NONE', *, *, #126, .T. ) ;
#25 = FACE_BOUND ( 'NONE', #60, .T. ) ;
#26 = CARTESIAN_POINT ( 'NONE',  ( 1.978282196272447880E-13, -7.232496212182236744E-15, 56.66025403784433223 ) ) ;
#27 = DIRECTION ( 'NONE',  ( 0.0000000000000000000, 0.0000000000000000000, 1.000000000000000000 ) ) ;
#28 = EDGE_CURVE ( 'NONE', #71, #71, #49, .T. ) ;
#29 = CC_DESIGN_APPROVAL ( #220, ( #113 ) ) ;
#30 = DIRECTION ( 'NONE',  ( 3.491481338843133355E-15, -1.224646799147353207E-16, 1.000000000000000000 ) ) ;
#31 = COORDINATED_UNIVERSAL_TIME_OFFSET ( 1, 0, .AHEAD. ) ;
#32 = ADVANCED_FACE ( 'NONE', ( #58 ), #174, .F. ) ;
#33 = AXIS2_PLACEMENT_3D ( 'NONE', #26, #192, #159 ) ;
#34 = CALENDAR_DATE ( 2021, 8, 12 ) ;
#35 = ORIENTED_EDGE ( 'NONE', *, *, #138, .T. ) ;
#36 = APPROVAL_DATE_TIME ( #103, #72 ) ;
#37 = EDGE_LOOP ( 'NONE', ( #35 ) ) ;
#38 = DIRECTION ( 'NONE',  ( 3.491481338843133355E-15, -1.276467311168695266E-16, 1.000000000000000000 ) ) ;
#39 = CC_DESIGN_PERSON_AND_ORGANIZATION_ASSIGNMENT ( #97, #177, ( #14 ) ) ;
#40 = CIRCLE ( 'NONE', #189, 4.000000000000000000 ) ;
#41 = MANIFOLD_SOLID_BREP ( 'Corps-Déplacer/Copier1[1]', #219 ) ;
#42 = CARTESIAN_POINT ( 'NONE',  ( 1.326762908760390423E-13, 2.999519565323705363E-32, 38.00000000000000000 ) ) ;
#43 = ORIENTED_EDGE ( 'NONE', *, *, #181, .T. ) ;
#44 = PLANE ( 'NONE',  #101 ) ;
#45 = CC_DESIGN_PERSON_AND_ORGANIZATION_ASSIGNMENT ( #213, #3, ( #47 ) ) ;
#46 = VERTEX_POINT ( 'NONE', #68 ) ;
#47 = PRODUCT_DEFINITION_FORMATION_WITH_SPECIFIED_SOURCE ( 'ANY', '', #14, .NOT_KNOWN. ) ;
#48 = FACE_BOUND ( 'NONE', #128, .T. ) ;
#49 = CIRCLE ( 'NONE', #148, 2.999999999999996003 ) ;
#50 = APPROVAL_ROLE ( '' ) ;
#51 = APPROVAL_ROLE ( '' ) ;
#52 = APPROVAL_PERSON_ORGANIZATION ( #127, #220, #51 ) ;
#53 = APPROVAL_DATE_TIME ( #149, #220 ) ;
#54 = FACE_OUTER_BOUND ( 'NONE', #66, .T. ) ;
#55 = ADVANCED_FACE ( 'NONE', ( #90 ), #157, .T. ) ;
#56 = CYLINDRICAL_SURFACE ( 'NONE', #185, 3.999999999999997335 ) ;
#57 = DIRECTION ( 'NONE',  ( 4.275831445896957731E-31, 1.000000000000000000, 1.224646799147353207E-16 ) ) ;
#58 = FACE_OUTER_BOUND ( 'NONE', #110, .T. ) ;
#59 = EDGE_CURVE ( 'NONE', #91, #91, #206, .T. ) ;
#60 = EDGE_LOOP ( 'NONE', ( #176 ) ) ;
#61 = CARTESIAN_POINT ( 'NONE',  ( 2.772236183041447758E-13, -9.723695585229984332E-15, 79.39999999999999147 ) ) ;
#62 = DIRECTION ( 'NONE',  ( -3.491481338843133355E-15, 1.224646799147353207E-16, -1.000000000000000000 ) ) ;
#63 = CARTESIAN_POINT ( 'NONE',  ( 3.190249341746070821E-31, -2.999999999999997335, 9.137237270192964198E-17 ) ) ;
#64 = PERSON_AND_ORGANIZATION ( #105, #16 ) ;
#65 = CIRCLE ( 'NONE', #139, 2.999999999999996003 ) ;
#66 = EDGE_LOOP ( 'NONE', ( #152 ) ) ;
#67 = CC_DESIGN_PERSON_AND_ORGANIZATION_ASSIGNMENT ( #64, #73, ( #22 ) ) ;
#68 = CARTESIAN_POINT ( 'NONE',  ( 1.326762908760390423E-13, -3.000000000000000888, 38.00000000000000000 ) ) ;
#69 = COORDINATED_UNIVERSAL_TIME_OFFSET ( 1, 0, .AHEAD. ) ;
#70 = APPLICATION_PROTOCOL_DEFINITION ( 'international standard', 'config_control_design', 1994, #133 ) ;
#71 = VERTEX_POINT ( 'NONE', #106 ) ;
#72 = APPROVAL ( #134, 'UNSPECIFIED' ) ;
#73 = PERSON_AND_ORGANIZATION_ROLE ( 'creator' ) ;
#74 = CARTESIAN_POINT ( 'NONE',  ( 2.793185071074506684E-13, -9.797174393178826052E-15, 80.00000000000000000 ) ) ;
#75 = DIRECTION ( 'NONE',  ( -3.491481338843133355E-15, 1.224646799147353207E-16, -1.000000000000000000 ) ) ;
#76 = CARTESIAN_POINT ( 'NONE',  ( -6.413786353521998128E-31, 2.249653418127172114E-32, -1.836981421658447292E-16 ) ) ;
#77 = CIRCLE ( 'NONE', #120, 3.400000000000000799 ) ;
#78 = DIRECTION ( 'NONE',  ( 4.275831445896958607E-31, 1.000000000000000000, 1.224646799147353207E-16 ) ) ;
#79 = APPROVAL_ROLE ( '' ) ;
#80 = ADVANCED_FACE ( 'NONE', ( #151, #216 ), #56, .T. ) ;
#81 = CARTESIAN_POINT ( 'NONE',  ( 2.793185071074506684E-13, -9.797174393178826052E-15, 80.00000000000000000 ) ) ;
#82 = EDGE_LOOP ( 'NONE', ( #158 ) ) ;
#83 = CONICAL_SURFACE ( 'NONE', #188, 3.400000000000000799, 0.7853981633974450594 ) ;
#84 = SHAPE_DEFINITION_REPRESENTATION ( #184, #217 ) ;
#85 = EDGE_CURVE ( 'NONE', #12, #12, #77, .T. ) ;
#86 = PERSON_AND_ORGANIZATION_ROLE ( 'classification_officer' ) ;
#87 =( LENGTH_UNIT ( ) NAMED_UNIT ( * ) SI_UNIT ( .MILLI., .METRE. ) );
#88 = PERSON_AND_ORGANIZATION ( #105, #16 ) ;
#89 = DIRECTION ( 'NONE',  ( 3.491481338843133355E-15, -1.276467311168695266E-16, 1.000000000000000000 ) ) ;
#90 = FACE_OUTER_BOUND ( 'NONE', #82, .T. ) ;
#91 = VERTEX_POINT ( 'NONE', #147 ) ;
#92 = ORIENTED_EDGE ( 'NONE', *, *, #138, .F. ) ;
#93 = DIRECTION ( 'NONE',  ( 0.0000000000000000000, -1.000000000000000000, 0.0000000000000000000 ) ) ;
#94 = AXIS2_PLACEMENT_3D ( 'NONE', #168, #155, #190 ) ;
#95 = ORIENTED_EDGE ( 'NONE', *, *, #126, .F. ) ;
#96 = CARTESIAN_POINT ( 'NONE',  ( 1.457066766262802166E-13, -5.326959868389280246E-15, 41.73205080756886787 ) ) ;
#97 = PERSON_AND_ORGANIZATION ( #105, #16 ) ;
#98 = LOCAL_TIME ( 9, 40, 37.00000000000000000, #31 ) ;
#99 = ADVANCED_FACE ( 'NONE', ( #218 ), #137, .F. ) ;
#100 = DIRECTION ( 'NONE',  ( 1.000000000000000000, 0.0000000000000000000, 0.0000000000000000000 ) ) ;
#101 = AXIS2_PLACEMENT_3D ( 'NONE', #76, #30, #2 ) ;
#102 = CARTESIAN_POINT ( 'NONE',  ( -6.413839710158237013E-31, 0.0000000000000000000, -1.836996703606440502E-16 ) ) ;
#103 = DATE_AND_TIME ( #201, #98 ) ;
#104 = AXIS2_PLACEMENT_3D ( 'NONE', #112, #7, #78 ) ;
#105 = PERSON ( 'UNSPECIFIED', 'UNSPECIFIED', 'UNSPECIFIED', ('UNSPECIFIED'), ('UNSPECIFIED'), ('UNSPECIFIED') ) ;
#106 = CARTESIAN_POINT ( 'NONE',  ( 1.326762908760390423E-13, -3.000000000000000888, 38.00000000000000000 ) ) ;
#107 = DIRECTION ( 'NONE',  ( -4.456761796588770537E-31, -1.000000000000000000, -1.276467311168695512E-16 ) ) ;
#108 = PERSON_AND_ORGANIZATION_ROLE ( 'creator' ) ;
#109 = FACE_OUTER_BOUND ( 'NONE', #21, .T. ) ;
#110 = EDGE_LOOP ( 'NONE', ( #204 ) ) ;
#111 = ADVANCED_FACE ( 'NONE', ( #48, #122 ), #202, .T. ) ;
#112 = CARTESIAN_POINT ( 'NONE',  ( 2.793185071074506684E-13, 2.549591630525143701E-32, 80.00000000000000000 ) ) ;
#113 = SECURITY_CLASSIFICATION ( '', '', #129 ) ;
#114 = DIRECTION ( 'NONE',  ( 0.0000000000000000000, -1.000000000000000000, 0.0000000000000000000 ) ) ;
#115 = UNCERTAINTY_MEASURE_WITH_UNIT (LENGTH_MEASURE( 1.000000000000000082E-05 ), #87, 'distance_accuracy_value', 'NONE');
#116 = DIRECTION ( 'NONE',  ( 3.491481338843133355E-15, -1.276467311168695266E-16, 1.000000000000000000 ) ) ;
#117 = FACE_OUTER_BOUND ( 'NONE', #205, .T. ) ;
#118 = MANIFOLD_SOLID_BREP ( 'Corps-Déplacer/Copier1[2]', #144 ) ;
#119 = EDGE_LOOP ( 'NONE', ( #130 ) ) ;
#120 = AXIS2_PLACEMENT_3D ( 'NONE', #74, #167, #5 ) ;
#121 = EDGE_LOOP ( 'NONE', ( #95 ) ) ;
#122 = FACE_OUTER_BOUND ( 'NONE', #119, .T. ) ;
#123 = CARTESIAN_POINT ( 'NONE',  ( 2.793185071074506684E-13, 3.399999999999990585, 80.00000000000000000 ) ) ;
#124 = DIRECTION ( 'NONE',  ( 0.0000000000000000000, 1.000000000000000000, 0.0000000000000000000 ) ) ;
#125 = CIRCLE ( 'NONE', #182, 2.999999999999997335 ) ;
#126 = EDGE_CURVE ( 'NONE', #46, #46, #65, .T. ) ;
#127 = PERSON_AND_ORGANIZATION ( #105, #16 ) ;
#128 = EDGE_LOOP ( 'NONE', ( #24 ) ) ;
#129 = SECURITY_CLASSIFICATION_LEVEL ( 'unclassified' ) ;
#130 = ORIENTED_EDGE ( 'NONE', *, *, #59, .T. ) ;
#131 = DATE_TIME_ROLE ( 'creation_date' ) ;
#132 = AXIS2_PLACEMENT_3D ( 'NONE', #102, #17, #107 ) ;
#133 = APPLICATION_CONTEXT ( 'configuration controlled 3d designs of mechanical parts and assemblies' ) ;
#134 = APPROVAL_STATUS ( 'not_yet_approved' ) ;
#135 = COORDINATED_UNIVERSAL_TIME_OFFSET ( 1, 0, .AHEAD. ) ;
#136 = CARTESIAN_POINT ( 'NONE',  ( 0.0000000000000000000, 0.0000000000000000000, 0.0000000000000000000 ) ) ;
#137 = PLANE ( 'NONE',  #1 ) ;
#138 = EDGE_CURVE ( 'NONE', #162, #162, #40, .T. ) ;
#139 = AXIS2_PLACEMENT_3D ( 'NONE', #208, #116, #11 ) ;
#140 = EDGE_LOOP ( 'NONE', ( #195 ) ) ;
#141 = CC_DESIGN_PERSON_AND_ORGANIZATION_ASSIGNMENT ( #88, #86, ( #113 ) ) ;
#142 = CC_DESIGN_APPROVAL ( #72, ( #47 ) ) ;
#143 = CALENDAR_DATE ( 2021, 8, 12 ) ;
#144 = CLOSED_SHELL ( 'NONE', ( #55, #207, #223 ) ) ;
#145 = APPLICATION_CONTEXT ( 'configuration controlled 3d designs of mechanical parts and assemblies' ) ;
#146 = CARTESIAN_POINT ( 'NONE',  ( 2.772236183041447758E-13, 3.999999999999990674, 79.39999999999999147 ) ) ;
#147 = CARTESIAN_POINT ( 'NONE',  ( 1.457066766262802166E-13, -4.000000000000002665, 41.73205080756886787 ) ) ;
#148 = AXIS2_PLACEMENT_3D ( 'NONE', #9, #38, #114 ) ;
#149 = DATE_AND_TIME ( #34, #13 ) ;
#150 = PERSON_AND_ORGANIZATION ( #105, #16 ) ;
#151 = FACE_OUTER_BOUND ( 'NONE', #37, .T. ) ;
#152 = ORIENTED_EDGE ( 'NONE', *, *, #28, .F. ) ;
#153 = LOCAL_TIME ( 9, 40, 37.00000000000000000, #69 ) ;
#154 = CYLINDRICAL_SURFACE ( 'NONE', #132, 2.999999999999996447 ) ;
#155 = DIRECTION ( 'NONE',  ( 3.491481338843133355E-15, -1.224646799147353207E-16, 1.000000000000000000 ) ) ;
#156 = CC_DESIGN_PERSON_AND_ORGANIZATION_ASSIGNMENT ( #186, #108, ( #47 ) ) ;
#157 = PLANE ( 'NONE',  #94 ) ;
#158 = ORIENTED_EDGE ( 'NONE', *, *, #28, .T. ) ;
#159 = DIRECTION ( 'NONE',  ( 0.0000000000000000000, -1.000000000000000000, 0.0000000000000000000 ) ) ;
#160 = AXIS2_PLACEMENT_3D ( 'NONE', #96, #175, #93 ) ;
#161 = APPROVAL ( #8, 'UNSPECIFIED' ) ;
#162 = VERTEX_POINT ( 'NONE', #146 ) ;
#163 = DATE_TIME_ROLE ( 'classification_date' ) ;
#164 = DATE_AND_TIME ( #215, #153 ) ;
#165 =( NAMED_UNIT ( * ) PLANE_ANGLE_UNIT ( ) SI_UNIT ( $, .RADIAN. ) );
#166 = CC_DESIGN_DATE_AND_TIME_ASSIGNMENT ( #183, #131, ( #22 ) ) ;
#167 = DIRECTION ( 'NONE',  ( -3.491481338843133355E-15, 1.224646799147353207E-16, -1.000000000000000000 ) ) ;
#168 = CARTESIAN_POINT ( 'NONE',  ( 1.326762908760390423E-13, 2.999519565323705363E-32, 38.00000000000000000 ) ) ;
#169 = CARTESIAN_POINT ( 'NONE',  ( 1.656053473151237148E-30, -8.399311101304341711E-32, 4.743125660525379012E-16 ) ) ;
#170 = FACE_OUTER_BOUND ( 'NONE', #23, .T. ) ;
#171 =( NAMED_UNIT ( * ) SI_UNIT ( $, .STERADIAN. ) SOLID_ANGLE_UNIT ( ) );
#172 = DIRECTION ( 'NONE',  ( -4.275831445896958607E-31, -1.000000000000000000, -1.224646799147353207E-16 ) ) ;
#173 = APPROVAL_PERSON_ORGANIZATION ( #200, #161, #79 ) ;
#174 = PLANE ( 'NONE',  #104 ) ;
#175 = DIRECTION ( 'NONE',  ( -3.491481338843133355E-15, 1.276467311168695266E-16, -1.000000000000000000 ) ) ;
#176 = ORIENTED_EDGE ( 'NONE', *, *, #85, .T. ) ;
#177 = PERSON_AND_ORGANIZATION_ROLE ( 'design_owner' ) ;
#178 = LOCAL_TIME ( 9, 40, 37.00000000000000000, #209 ) ;
#179 = ADVANCED_FACE ( 'NONE', ( #117, #25 ), #83, .T. ) ;
#180 = DATE_AND_TIME ( #143, #178 ) ;
#181 = EDGE_CURVE ( 'NONE', #210, #210, #125, .T. ) ;
#182 = AXIS2_PLACEMENT_3D ( 'NONE', #169, #89, #203 ) ;
#183 = DATE_AND_TIME ( #191, #222 ) ;
#184 = PRODUCT_DEFINITION_SHAPE ( 'NONE', 'NONE',  #22 ) ;
#185 = AXIS2_PLACEMENT_3D ( 'NONE', #136, #75, #57 ) ;
#186 = PERSON_AND_ORGANIZATION ( #105, #16 ) ;
#187 = DIRECTION ( 'NONE',  ( 3.491481338843133355E-15, -1.224646799147353207E-16, 1.000000000000000000 ) ) ;
#188 = AXIS2_PLACEMENT_3D ( 'NONE', #81, #62, #124 ) ;
#189 = AXIS2_PLACEMENT_3D ( 'NONE', #61, #221, #193 ) ;
#190 = DIRECTION ( 'NONE',  ( -4.275831445896958607E-31, -1.000000000000000000, -1.224646799147353207E-16 ) ) ;
#191 = CALENDAR_DATE ( 2021, 8, 12 ) ;
#192 = DIRECTION ( 'NONE',  ( 3.491481338843133355E-15, -1.276467311168695266E-16, 1.000000000000000000 ) ) ;
#193 = DIRECTION ( 'NONE',  ( 0.0000000000000000000, 1.000000000000000000, 0.0000000000000000000 ) ) ;
#194 = CC_DESIGN_DATE_AND_TIME_ASSIGNMENT ( #164, #163, ( #113 ) ) ;
#195 = ORIENTED_EDGE ( 'NONE', *, *, #59, .F. ) ;
#196 = CC_DESIGN_SECURITY_CLASSIFICATION ( #113, ( #47 ) ) ;
#197 = ORIENTED_EDGE ( 'NONE', *, *, #181, .F. ) ;
#198 = CARTESIAN_POINT ( 'NONE',  ( 0.0000000000000000000, 0.0000000000000000000, 0.0000000000000000000 ) ) ;
#199 = MECHANICAL_CONTEXT ( 'NONE', #133, 'mechanical' ) ;
#200 = PERSON_AND_ORGANIZATION ( #105, #16 ) ;
#201 = CALENDAR_DATE ( 2021, 8, 12 ) ;
#202 = CONICAL_SURFACE ( 'NONE', #33, 7.999999999999996447, 0.2617993877991501850 ) ;
#203 = DIRECTION ( 'NONE',  ( -4.456761796588770537E-31, -1.000000000000000000, -1.276467311168695266E-16 ) ) ;
#204 = ORIENTED_EDGE ( 'NONE', *, *, #85, .F. ) ;
#205 = EDGE_LOOP ( 'NONE', ( #92 ) ) ;
#206 = CIRCLE ( 'NONE', #160, 3.999999999999997335 ) ;
#207 = ADVANCED_FACE ( 'NONE', ( #109, #54 ), #154, .T. ) ;
#208 = CARTESIAN_POINT ( 'NONE',  ( 1.326762908760390423E-13, -4.850575782441041713E-15, 38.00000000000000000 ) ) ;
#209 = COORDINATED_UNIVERSAL_TIME_OFFSET ( 1, 0, .AHEAD. ) ;
#210 = VERTEX_POINT ( 'NONE', #63 ) ;
#211 = DESIGN_CONTEXT ( 'detailed design', #145, 'design' ) ;
#212 = PRODUCT_RELATED_PRODUCT_CATEGORY ( 'detail', '', ( #14 ) ) ;
#213 = PERSON_AND_ORGANIZATION ( #105, #16 ) ;
#214 = CC_DESIGN_APPROVAL ( #161, ( #22 ) ) ;
#215 = CALENDAR_DATE ( 2021, 8, 12 ) ;
#216 = FACE_OUTER_BOUND ( 'NONE', #140, .T. ) ;
#217 = ADVANCED_BREP_SHAPE_REPRESENTATION ( '372622', ( #41, #118, #20 ), #6 ) ;
#218 = FACE_OUTER_BOUND ( 'NONE', #121, .T. ) ;
#219 = CLOSED_SHELL ( 'NONE', ( #80, #179, #32, #111, #99 ) ) ;
#220 = APPROVAL ( #19, 'UNSPECIFIED' ) ;
#221 = DIRECTION ( 'NONE',  ( -3.491481338843133355E-15, 1.224646799147353207E-16, -1.000000000000000000 ) ) ;
#222 = LOCAL_TIME ( 9, 40, 37.00000000000000000, #135 ) ;
#223 = ADVANCED_FACE ( 'NONE', ( #170 ), #44, .F. ) ;
ENDSEC;
END-ISO-10303-21;
