ISO-10303-21;
HEADER;
FILE_DESCRIPTION (( 'STEP AP203' ),
    '1' );
FILE_NAME ('372621.step',
    '2021-12-08T08:40:36',
    ( '' ),
    ( '' ),
    'SwSTEP 2.0',
    'SolidWorks 2019',
    '' );
FILE_SCHEMA (( 'CONFIG_CONTROL_DESIGN' ));
ENDSEC;

DATA;
#1 = DIRECTION ( 'NONE',  ( 0.0000000000000000000, 1.000000000000000000, 0.0000000000000000000 ) ) ;
#2 = ORGANIZATION ( 'UNSPECIFIED', 'UNSPECIFIED', '' ) ;
#3 = AXIS2_PLACEMENT_3D ( 'NONE', #87, #5, #198 ) ;
#4 = DESIGN_CONTEXT ( 'detailed design', #58, 'design' ) ;
#5 = DIRECTION ( 'NONE',  ( -3.491481338843133355E-15, 1.276467311168695266E-16, -1.000000000000000000 ) ) ;
#6 = CC_DESIGN_DATE_AND_TIME_ASSIGNMENT ( #119, #37, ( #162 ) ) ;
#7 = FACE_OUTER_BOUND ( 'NONE', #40, .T. ) ;
#8 = CIRCLE ( 'NONE', #151, 3.400000000000000799 ) ;
#9 = PLANE ( 'NONE',  #13 ) ;
#10 = EDGE_LOOP ( 'NONE', ( #215 ) ) ;
#11 = DATE_TIME_ROLE ( 'creation_date' ) ;
#12 = PERSON_AND_ORGANIZATION ( #110, #2 ) ;
#13 = AXIS2_PLACEMENT_3D ( 'NONE', #195, #68, #144 ) ;
#14 = PERSON_AND_ORGANIZATION ( #110, #2 ) ;
#15 = DIRECTION ( 'NONE',  ( 3.491481338843133355E-15, -1.224646799147353207E-16, 1.000000000000000000 ) ) ;
#16 = APPLICATION_CONTEXT ( 'configuration controlled 3d designs of mechanical parts and assemblies' ) ;
#17 = LOCAL_TIME ( 9, 40, 36.00000000000000000, #46 ) ;
#18 = PRODUCT ( '372621', '372621', '', ( #170 ) ) ;
#19 = DIRECTION ( 'NONE',  ( -4.275831445896958607E-31, -1.000000000000000000, -1.224646799147353207E-16 ) ) ;
#20 = APPROVAL ( #38, 'UNSPECIFIED' ) ;
#21 = AXIS2_PLACEMENT_3D ( 'NONE', #169, #197, #212 ) ;
#22 = APPLICATION_PROTOCOL_DEFINITION ( 'international standard', 'config_control_design', 1994, #58 ) ;
#23 = EDGE_LOOP ( 'NONE', ( #103 ) ) ;
#24 = CARTESIAN_POINT ( 'NONE',  ( 1.656053473151237148E-30, -8.399311101304341711E-32, 4.743125660525379012E-16 ) ) ;
#25 = FACE_OUTER_BOUND ( 'NONE', #158, .T. ) ;
#26 = DIRECTION ( 'NONE',  ( 3.491481338843133355E-15, -1.276467311168695266E-16, 1.000000000000000000 ) ) ;
#27 = CALENDAR_DATE ( 2021, 8, 12 ) ;
#28 = PERSON_AND_ORGANIZATION_ROLE ( 'classification_officer' ) ;
#29 = LOCAL_TIME ( 9, 40, 36.00000000000000000, #134 ) ;
#30 = APPROVAL_DATE_TIME ( #201, #93 ) ;
#31 = CARTESIAN_POINT ( 'NONE',  ( 2.793185071074506684E-13, -9.797174393178826052E-15, 80.00000000000000000 ) ) ;
#32 = PERSON_AND_ORGANIZATION ( #110, #2 ) ;
#33 = CC_DESIGN_APPROVAL ( #20, ( #162 ) ) ;
#34 = DIRECTION ( 'NONE',  ( 0.0000000000000000000, -1.000000000000000000, 0.0000000000000000000 ) ) ;
#35 = UNCERTAINTY_MEASURE_WITH_UNIT (LENGTH_MEASURE( 1.000000000000000082E-05 ), #146, 'distance_accuracy_value', 'NONE');
#36 = CIRCLE ( 'NONE', #90, 4.000000000000000000 ) ;
#37 = DATE_TIME_ROLE ( 'classification_date' ) ;
#38 = APPROVAL_STATUS ( 'not_yet_approved' ) ;
#39 = CARTESIAN_POINT ( 'NONE',  ( 1.117274028429802674E-13, -3.000000000000001776, 32.00000000000000000 ) ) ;
#40 = EDGE_LOOP ( 'NONE', ( #217 ) ) ;
#41 = CYLINDRICAL_SURFACE ( 'NONE', #138, 3.999999999999997335 ) ;
#42 = DIRECTION ( 'NONE',  ( -4.456761796588770537E-31, -1.000000000000000000, -1.276467311168695266E-16 ) ) ;
#43 = COORDINATED_UNIVERSAL_TIME_OFFSET ( 1, 0, .AHEAD. ) ;
#44 = CC_DESIGN_PERSON_AND_ORGANIZATION_ASSIGNMENT ( #14, #133, ( #178 ) ) ;
#45 = APPROVAL_ROLE ( '' ) ;
#46 = COORDINATED_UNIVERSAL_TIME_OFFSET ( 1, 0, .AHEAD. ) ;
#47 = EDGE_CURVE ( 'NONE', #106, #106, #8, .T. ) ;
#48 = APPROVAL ( #165, 'UNSPECIFIED' ) ;
#49 = CARTESIAN_POINT ( 'NONE',  ( 1.117274028429802674E-13, -4.084695395739824850E-15, 32.00000000000000000 ) ) ;
#50 = ADVANCED_FACE ( 'NONE', ( #135, #180 ), #62, .T. ) ;
#51 = CIRCLE ( 'NONE', #177, 2.999999999999997335 ) ;
#52 = EDGE_LOOP ( 'NONE', ( #88 ) ) ;
#53 =( NAMED_UNIT ( * ) PLANE_ANGLE_UNIT ( ) SI_UNIT ( $, .RADIAN. ) );
#54 = CIRCLE ( 'NONE', #94, 2.999999999999997780 ) ;
#55 =( NAMED_UNIT ( * ) SI_UNIT ( $, .STERADIAN. ) SOLID_ANGLE_UNIT ( ) );
#56 = PERSON_AND_ORGANIZATION ( #110, #2 ) ;
#57 = EDGE_LOOP ( 'NONE', ( #196 ) ) ;
#58 = APPLICATION_CONTEXT ( 'configuration controlled 3d designs of mechanical parts and assemblies' ) ;
#59 = ADVANCED_FACE ( 'NONE', ( #222, #137 ), #82, .T. ) ;
#60 = CLOSED_SHELL ( 'NONE', ( #77, #50, #150 ) ) ;
#61 = APPROVAL_STATUS ( 'not_yet_approved' ) ;
#62 = CYLINDRICAL_SURFACE ( 'NONE', #123, 2.999999999999997335 ) ;
#63 = DATE_AND_TIME ( #78, #114 ) ;
#64 = ADVANCED_FACE ( 'NONE', ( #95, #154 ), #102, .T. ) ;
#65 = CIRCLE ( 'NONE', #3, 3.999999999999997335 ) ;
#66 = AXIS2_PLACEMENT_3D ( 'NONE', #209, #152, #187 ) ;
#67 = DIRECTION ( 'NONE',  ( 0.0000000000000000000, 0.0000000000000000000, 1.000000000000000000 ) ) ;
#68 = DIRECTION ( 'NONE',  ( -3.491481338843133355E-15, 1.224646799147353207E-16, -1.000000000000000000 ) ) ;
#69 = CC_DESIGN_PERSON_AND_ORGANIZATION_ASSIGNMENT ( #111, #181, ( #185 ) ) ;
#70 = CARTESIAN_POINT ( 'NONE',  ( 1.117274028429802674E-13, -3.000000000000001776, 32.00000000000000000 ) ) ;
#71 = ORIENTED_EDGE ( 'NONE', *, *, #47, .T. ) ;
#72 = EDGE_LOOP ( 'NONE', ( #171 ) ) ;
#73 = CLOSED_SHELL ( 'NONE', ( #219, #64, #199, #59, #194 ) ) ;
#74 = PERSON_AND_ORGANIZATION ( #110, #2 ) ;
#75 = CARTESIAN_POINT ( 'NONE',  ( -6.413839710158237013E-31, 0.0000000000000000000, -1.836996703606440502E-16 ) ) ;
#76 = CALENDAR_DATE ( 2021, 8, 12 ) ;
#77 = ADVANCED_FACE ( 'NONE', ( #97 ), #189, .T. ) ;
#78 = CALENDAR_DATE ( 2021, 8, 12 ) ;
#79 = SECURITY_CLASSIFICATION_LEVEL ( 'unclassified' ) ;
#80 = APPROVAL_PERSON_ORGANIZATION ( #74, #93, #148 ) ;
#81 = DIRECTION ( 'NONE',  ( 3.491481338843133355E-15, -1.276467311168695266E-16, 1.000000000000000000 ) ) ;
#82 = CONICAL_SURFACE ( 'NONE', #66, 7.999999999999998224, 0.2617993877991501295 ) ;
#83 = PRODUCT_RELATED_PRODUCT_CATEGORY ( 'detail', '', ( #18 ) ) ;
#84 = CARTESIAN_POINT ( 'NONE',  ( 2.772236183041447758E-13, -9.723695585229984332E-15, 79.39999999999999147 ) ) ;
#85 = LOCAL_TIME ( 9, 40, 36.00000000000000000, #112 ) ;
#86 = VERTEX_POINT ( 'NONE', #70 ) ;
#87 = CARTESIAN_POINT ( 'NONE',  ( 1.247577885932214165E-13, -4.561079481688063383E-15, 35.73205080756886787 ) ) ;
#88 = ORIENTED_EDGE ( 'NONE', *, *, #141, .F. ) ;
#89 = EDGE_LOOP ( 'NONE', ( #71 ) ) ;
#90 = AXIS2_PLACEMENT_3D ( 'NONE', #84, #207, #1 ) ;
#91 = CARTESIAN_POINT ( 'NONE',  ( 1.247577885932214165E-13, -4.000000000000001776, 35.73205080756886787 ) ) ;
#92 = CC_DESIGN_PERSON_AND_ORGANIZATION_ASSIGNMENT ( #12, #28, ( #162 ) ) ;
#93 = APPROVAL ( #61, 'UNSPECIFIED' ) ;
#94 = AXIS2_PLACEMENT_3D ( 'NONE', #49, #81, #116 ) ;
#95 = FACE_OUTER_BOUND ( 'NONE', #57, .T. ) ;
#96 = FACE_OUTER_BOUND ( 'NONE', #23, .T. ) ;
#97 = FACE_OUTER_BOUND ( 'NONE', #126, .T. ) ;
#98 = VERTEX_POINT ( 'NONE', #91 ) ;
#99 = ORIENTED_EDGE ( 'NONE', *, *, #141, .T. ) ;
#100 = CC_DESIGN_DATE_AND_TIME_ASSIGNMENT ( #179, #11, ( #178 ) ) ;
#101 = APPLICATION_PROTOCOL_DEFINITION ( 'international standard', 'config_control_design', 1994, #16 ) ;
#102 = CONICAL_SURFACE ( 'NONE', #160, 3.400000000000000799, 0.7853981633974450594 ) ;
#103 = ORIENTED_EDGE ( 'NONE', *, *, #163, .F. ) ;
#104 = PERSON_AND_ORGANIZATION ( #110, #2 ) ;
#105 = DIRECTION ( 'NONE',  ( -3.491481338843133355E-15, 1.224646799147353207E-16, -1.000000000000000000 ) ) ;
#106 = VERTEX_POINT ( 'NONE', #175 ) ;
#107 = SHAPE_DEFINITION_REPRESENTATION ( #120, #168 ) ;
#108 = AXIS2_PLACEMENT_3D ( 'NONE', #188, #208, #34 ) ;
#109 = PERSON_AND_ORGANIZATION_ROLE ( 'design_supplier' ) ;
#110 = PERSON ( 'UNSPECIFIED', 'UNSPECIFIED', 'UNSPECIFIED', ('UNSPECIFIED'), ('UNSPECIFIED'), ('UNSPECIFIED') ) ;
#111 = PERSON_AND_ORGANIZATION ( #110, #2 ) ;
#112 = COORDINATED_UNIVERSAL_TIME_OFFSET ( 1, 0, .AHEAD. ) ;
#113 = MANIFOLD_SOLID_BREP ( 'Corps-Déplacer/Copier1[2]', #60 ) ;
#114 = LOCAL_TIME ( 9, 40, 36.00000000000000000, #43 ) ;
#115 = EDGE_CURVE ( 'NONE', #86, #86, #54, .T. ) ;
#116 = DIRECTION ( 'NONE',  ( 0.0000000000000000000, -1.000000000000000000, 0.0000000000000000000 ) ) ;
#117 = CALENDAR_DATE ( 2021, 8, 12 ) ;
#118 = AXIS2_PLACEMENT_3D ( 'NONE', #164, #15, #19 ) ;
#119 = DATE_AND_TIME ( #117, #29 ) ;
#120 = PRODUCT_DEFINITION_SHAPE ( 'NONE', 'NONE',  #178 ) ;
#121 = EDGE_CURVE ( 'NONE', #143, #143, #36, .T. ) ;
#122 = DIRECTION ( 'NONE',  ( 0.0000000000000000000, 1.000000000000000000, 0.0000000000000000000 ) ) ;
#123 = AXIS2_PLACEMENT_3D ( 'NONE', #75, #26, #220 ) ;
#124 = DIRECTION ( 'NONE',  ( 3.491481338843133355E-15, -1.276467311168695266E-16, 1.000000000000000000 ) ) ;
#125 = CARTESIAN_POINT ( 'NONE',  ( -6.413786353521998128E-31, 2.249653418127172114E-32, -1.836981421658447292E-16 ) ) ;
#126 = EDGE_LOOP ( 'NONE', ( #99 ) ) ;
#127 = DIRECTION ( 'NONE',  ( 4.275831445896957731E-31, 1.000000000000000000, 1.224646799147353207E-16 ) ) ;
#128 = AXIS2_PLACEMENT_3D ( 'NONE', #156, #67, #142 ) ;
#129 = FACE_OUTER_BOUND ( 'NONE', #145, .T. ) ;
#130 = ORIENTED_EDGE ( 'NONE', *, *, #121, .T. ) ;
#131 = DIRECTION ( 'NONE',  ( 3.491481338843133355E-15, -1.224646799147353207E-16, 1.000000000000000000 ) ) ;
#132 = ORIENTED_EDGE ( 'NONE', *, *, #161, .T. ) ;
#133 = PERSON_AND_ORGANIZATION_ROLE ( 'creator' ) ;
#134 = COORDINATED_UNIVERSAL_TIME_OFFSET ( 1, 0, .AHEAD. ) ;
#135 = FACE_OUTER_BOUND ( 'NONE', #72, .T. ) ;
#136 = APPROVAL_PERSON_ORGANIZATION ( #206, #48, #45 ) ;
#137 = FACE_OUTER_BOUND ( 'NONE', #193, .T. ) ;
#138 = AXIS2_PLACEMENT_3D ( 'NONE', #211, #105, #127 ) ;
#139 = DIRECTION ( 'NONE',  ( -3.491481338843133355E-15, 1.224646799147353207E-16, -1.000000000000000000 ) ) ;
#140 = LOCAL_TIME ( 9, 40, 36.00000000000000000, #203 ) ;
#141 = EDGE_CURVE ( 'NONE', #191, #191, #149, .T. ) ;
#142 = DIRECTION ( 'NONE',  ( 1.000000000000000000, 0.0000000000000000000, 0.0000000000000000000 ) ) ;
#143 = VERTEX_POINT ( 'NONE', #176 ) ;
#144 = DIRECTION ( 'NONE',  ( 4.275831445896958607E-31, 1.000000000000000000, 1.224646799147353207E-16 ) ) ;
#145 = EDGE_LOOP ( 'NONE', ( #130 ) ) ;
#146 =( LENGTH_UNIT ( ) NAMED_UNIT ( * ) SI_UNIT ( .MILLI., .METRE. ) );
#147 = ORIENTED_EDGE ( 'NONE', *, *, #47, .F. ) ;
#148 = APPROVAL_ROLE ( '' ) ;
#149 = CIRCLE ( 'NONE', #108, 2.999999999999997780 ) ;
#150 = ADVANCED_FACE ( 'NONE', ( #96 ), #166, .F. ) ;
#151 = AXIS2_PLACEMENT_3D ( 'NONE', #31, #218, #182 ) ;
#152 = DIRECTION ( 'NONE',  ( 3.491481338843133355E-15, -1.276467311168695266E-16, 1.000000000000000000 ) ) ;
#153 = CC_DESIGN_PERSON_AND_ORGANIZATION_ASSIGNMENT ( #104, #172, ( #18 ) ) ;
#154 = FACE_BOUND ( 'NONE', #89, .T. ) ;
#155 = CC_DESIGN_SECURITY_CLASSIFICATION ( #162, ( #185 ) ) ;
#156 = CARTESIAN_POINT ( 'NONE',  ( 0.0000000000000000000, 0.0000000000000000000, 0.0000000000000000000 ) ) ;
#157 = FACE_OUTER_BOUND ( 'NONE', #174, .T. ) ;
#158 = EDGE_LOOP ( 'NONE', ( #202 ) ) ;
#159 = PLANE ( 'NONE',  #21 ) ;
#160 = AXIS2_PLACEMENT_3D ( 'NONE', #190, #139, #122 ) ;
#161 = EDGE_CURVE ( 'NONE', #98, #98, #65, .T. ) ;
#162 = SECURITY_CLASSIFICATION ( '', '', #79 ) ;
#163 = EDGE_CURVE ( 'NONE', #214, #214, #51, .T. ) ;
#164 = CARTESIAN_POINT ( 'NONE',  ( 1.117274028429802674E-13, 2.999519565323705363E-32, 32.00000000000000000 ) ) ;
#165 = APPROVAL_STATUS ( 'not_yet_approved' ) ;
#166 = PLANE ( 'NONE',  #213 ) ;
#167 = CC_DESIGN_APPROVAL ( #48, ( #185 ) ) ;
#168 = ADVANCED_BREP_SHAPE_REPRESENTATION ( '372621', ( #186, #113, #128 ), #223 ) ;
#169 = CARTESIAN_POINT ( 'NONE',  ( 1.117274028429802674E-13, 2.999519565323705363E-32, 32.00000000000000000 ) ) ;
#170 = MECHANICAL_CONTEXT ( 'NONE', #16, 'mechanical' ) ;
#171 = ORIENTED_EDGE ( 'NONE', *, *, #163, .T. ) ;
#172 = PERSON_AND_ORGANIZATION_ROLE ( 'design_owner' ) ;
#173 = CC_DESIGN_PERSON_AND_ORGANIZATION_ASSIGNMENT ( #32, #109, ( #185 ) ) ;
#174 = EDGE_LOOP ( 'NONE', ( #147 ) ) ;
#175 = CARTESIAN_POINT ( 'NONE',  ( 2.793185071074506684E-13, 3.399999999999990585, 80.00000000000000000 ) ) ;
#176 = CARTESIAN_POINT ( 'NONE',  ( 2.772236183041447758E-13, 3.999999999999990674, 79.39999999999999147 ) ) ;
#177 = AXIS2_PLACEMENT_3D ( 'NONE', #24, #124, #42 ) ;
#178 = PRODUCT_DEFINITION ( 'UNKNOWN', '', #185, #4 ) ;
#179 = DATE_AND_TIME ( #27, #17 ) ;
#180 = FACE_OUTER_BOUND ( 'NONE', #52, .T. ) ;
#181 = PERSON_AND_ORGANIZATION_ROLE ( 'creator' ) ;
#182 = DIRECTION ( 'NONE',  ( 0.0000000000000000000, 1.000000000000000000, 0.0000000000000000000 ) ) ;
#183 = APPROVAL_PERSON_ORGANIZATION ( #56, #20, #200 ) ;
#184 = APPROVAL_DATE_TIME ( #221, #48 ) ;
#185 = PRODUCT_DEFINITION_FORMATION_WITH_SPECIFIED_SOURCE ( 'ANY', '', #18, .NOT_KNOWN. ) ;
#186 = MANIFOLD_SOLID_BREP ( 'Corps-Déplacer/Copier1[1]', #73 ) ;
#187 = DIRECTION ( 'NONE',  ( 0.0000000000000000000, -1.000000000000000000, 0.0000000000000000000 ) ) ;
#188 = CARTESIAN_POINT ( 'NONE',  ( 1.117274028429802674E-13, -4.084695395739824850E-15, 32.00000000000000000 ) ) ;
#189 = PLANE ( 'NONE',  #118 ) ;
#190 = CARTESIAN_POINT ( 'NONE',  ( 2.793185071074506684E-13, -9.797174393178826052E-15, 80.00000000000000000 ) ) ;
#191 = VERTEX_POINT ( 'NONE', #39 ) ;
#192 = CARTESIAN_POINT ( 'NONE',  ( 3.190249341746070821E-31, -2.999999999999997335, 9.137237270192964198E-17 ) ) ;
#193 = EDGE_LOOP ( 'NONE', ( #132 ) ) ;
#194 = ADVANCED_FACE ( 'NONE', ( #7 ), #159, .F. ) ;
#195 = CARTESIAN_POINT ( 'NONE',  ( 2.793185071074506684E-13, 2.549591630525143701E-32, 80.00000000000000000 ) ) ;
#196 = ORIENTED_EDGE ( 'NONE', *, *, #121, .F. ) ;
#197 = DIRECTION ( 'NONE',  ( 3.491481338843133355E-15, -1.224646799147353207E-16, 1.000000000000000000 ) ) ;
#198 = DIRECTION ( 'NONE',  ( 0.0000000000000000000, -1.000000000000000000, 0.0000000000000000000 ) ) ;
#199 = ADVANCED_FACE ( 'NONE', ( #157 ), #9, .F. ) ;
#200 = APPROVAL_ROLE ( '' ) ;
#201 = DATE_AND_TIME ( #204, #85 ) ;
#202 = ORIENTED_EDGE ( 'NONE', *, *, #161, .F. ) ;
#203 = COORDINATED_UNIVERSAL_TIME_OFFSET ( 1, 0, .AHEAD. ) ;
#204 = CALENDAR_DATE ( 2021, 8, 12 ) ;
#205 = APPROVAL_DATE_TIME ( #63, #20 ) ;
#206 = PERSON_AND_ORGANIZATION ( #110, #2 ) ;
#207 = DIRECTION ( 'NONE',  ( -3.491481338843133355E-15, 1.224646799147353207E-16, -1.000000000000000000 ) ) ;
#208 = DIRECTION ( 'NONE',  ( 3.491481338843133355E-15, -1.276467311168695266E-16, 1.000000000000000000 ) ) ;
#209 = CARTESIAN_POINT ( 'NONE',  ( 1.768793315941860131E-13, -6.466615825481020670E-15, 50.66025403784433934 ) ) ;
#210 = CC_DESIGN_APPROVAL ( #93, ( #178 ) ) ;
#211 = CARTESIAN_POINT ( 'NONE',  ( 0.0000000000000000000, 0.0000000000000000000, 0.0000000000000000000 ) ) ;
#212 = DIRECTION ( 'NONE',  ( -4.275831445896958607E-31, -1.000000000000000000, -1.224646799147353207E-16 ) ) ;
#213 = AXIS2_PLACEMENT_3D ( 'NONE', #125, #131, #216 ) ;
#214 = VERTEX_POINT ( 'NONE', #192 ) ;
#215 = ORIENTED_EDGE ( 'NONE', *, *, #115, .T. ) ;
#216 = DIRECTION ( 'NONE',  ( -4.275831445896958607E-31, -1.000000000000000000, -1.224646799147353207E-16 ) ) ;
#217 = ORIENTED_EDGE ( 'NONE', *, *, #115, .F. ) ;
#218 = DIRECTION ( 'NONE',  ( -3.491481338843133355E-15, 1.224646799147353207E-16, -1.000000000000000000 ) ) ;
#219 = ADVANCED_FACE ( 'NONE', ( #129, #25 ), #41, .T. ) ;
#220 = DIRECTION ( 'NONE',  ( -4.456761796588770537E-31, -1.000000000000000000, -1.276467311168695266E-16 ) ) ;
#221 = DATE_AND_TIME ( #76, #140 ) ;
#222 = FACE_BOUND ( 'NONE', #10, .T. ) ;
#223 =( GEOMETRIC_REPRESENTATION_CONTEXT ( 3 ) GLOBAL_UNCERTAINTY_ASSIGNED_CONTEXT ( ( #35 ) ) GLOBAL_UNIT_ASSIGNED_CONTEXT ( ( #146, #53, #55 ) ) REPRESENTATION_CONTEXT ( 'NONE', 'WORKASPACE' ) );
ENDSEC;
END-ISO-10303-21;
