ISO-10303-21;
HEADER;
FILE_DESCRIPTION (( 'STEP AP203' ),
    '1' );
FILE_NAME ('372620.step',
    '2021-12-08T08:40:36',
    ( '' ),
    ( '' ),
    'SwSTEP 2.0',
    'SolidWorks 2019',
    '' );
FILE_SCHEMA (( 'CONFIG_CONTROL_DESIGN' ));
ENDSEC;

DATA;
#1 = PRODUCT ( '372620', '372620', '', ( #61 ) ) ;
#2 = PLANE ( 'NONE',  #83 ) ;
#3 = ORGANIZATION ( 'UNSPECIFIED', 'UNSPECIFIED', '' ) ;
#4 = DESIGN_CONTEXT ( 'detailed design', #176, 'design' ) ;
#5 = DIRECTION ( 'NONE',  ( 3.491481338843133355E-15, -1.276467311168695266E-16, 1.000000000000000000 ) ) ;
#6 = VERTEX_POINT ( 'NONE', #118 ) ;
#7 = ORIENTED_EDGE ( 'NONE', *, *, #206, .T. ) ;
#8 = CARTESIAN_POINT ( 'NONE',  ( 1.047444401652940007E-13, -3.000000000000001332, 30.00000000000000000 ) ) ;
#9 = DIRECTION ( 'NONE',  ( -3.491481338843133355E-15, 1.224646799147353207E-16, -1.000000000000000000 ) ) ;
#10 = PERSON_AND_ORGANIZATION ( #126, #3 ) ;
#11 = DATE_AND_TIME ( #156, #184 ) ;
#12 = CC_DESIGN_PERSON_AND_ORGANIZATION_ASSIGNMENT ( #112, #175, ( #128 ) ) ;
#13 = APPLICATION_CONTEXT ( 'configuration controlled 3d designs of mechanical parts and assemblies' ) ;
#14 = COORDINATED_UNIVERSAL_TIME_OFFSET ( 1, 0, .AHEAD. ) ;
#15 = SECURITY_CLASSIFICATION ( '', '', #91 ) ;
#16 = CARTESIAN_POINT ( 'NONE',  ( 1.047444401652940007E-13, 2.999519565323705910E-32, 30.00000000000000000 ) ) ;
#17 = AXIS2_PLACEMENT_3D ( 'NONE', #24, #192, #23 ) ;
#18 = CIRCLE ( 'NONE', #149, 2.999999999999996447 ) ;
#19 = FACE_OUTER_BOUND ( 'NONE', #120, .T. ) ;
#20 = VERTEX_POINT ( 'NONE', #165 ) ;
#21 = CARTESIAN_POINT ( 'NONE',  ( -1.085582104150895230E-31, -2.999999999999996447, -3.109230721280588211E-17 ) ) ;
#22 = EDGE_LOOP ( 'NONE', ( #66 ) ) ;
#23 = DIRECTION ( 'NONE',  ( 0.0000000000000000000, -1.000000000000000000, 0.0000000000000000000 ) ) ;
#24 = CARTESIAN_POINT ( 'NONE',  ( 1.698963689164996959E-13, -6.211322363247279349E-15, 48.66025403784432513 ) ) ;
#25 = DIRECTION ( 'NONE',  ( -4.456761796588770537E-31, -1.000000000000000000, -1.276467311168695512E-16 ) ) ;
#26 = APPROVAL_ROLE ( '' ) ;
#27 = ORIENTED_EDGE ( 'NONE', *, *, #139, .T. ) ;
#28 = APPROVAL_ROLE ( '' ) ;
#29 = CARTESIAN_POINT ( 'NONE',  ( 0.0000000000000000000, 0.0000000000000000000, 0.0000000000000000000 ) ) ;
#30 = FACE_OUTER_BOUND ( 'NONE', #197, .T. ) ;
#31 = PERSON_AND_ORGANIZATION ( #126, #3 ) ;
#32 = LOCAL_TIME ( 9, 40, 36.00000000000000000, #183 ) ;
#33 = APPROVAL ( #142, 'UNSPECIFIED' ) ;
#34 = DIRECTION ( 'NONE',  ( -4.456761796588770537E-31, -1.000000000000000000, -1.276467311168695512E-16 ) ) ;
#35 = UNCERTAINTY_MEASURE_WITH_UNIT (LENGTH_MEASURE( 1.000000000000000082E-05 ), #150, 'distance_accuracy_value', 'NONE');
#36 = CLOSED_SHELL ( 'NONE', ( #111, #84, #147, #159, #79 ) ) ;
#37 = VERTEX_POINT ( 'NONE', #72 ) ;
#38 = DIRECTION ( 'NONE',  ( 0.0000000000000000000, -1.000000000000000000, 0.0000000000000000000 ) ) ;
#39 = EDGE_LOOP ( 'NONE', ( #178 ) ) ;
#40 = AXIS2_PLACEMENT_3D ( 'NONE', #41, #196, #167 ) ;
#41 = CARTESIAN_POINT ( 'NONE',  ( 1.047444401652940007E-13, -3.829401933506085895E-15, 30.00000000000000000 ) ) ;
#42 = ADVANCED_FACE ( 'NONE', ( #30, #158 ), #223, .T. ) ;
#43 = EDGE_LOOP ( 'NONE', ( #174 ) ) ;
#44 = CARTESIAN_POINT ( 'NONE',  ( 0.0000000000000000000, 0.0000000000000000000, 0.0000000000000000000 ) ) ;
#45 = CIRCLE ( 'NONE', #160, 3.400000000000000799 ) ;
#46 = APPROVAL ( #144, 'UNSPECIFIED' ) ;
#47 = DATE_AND_TIME ( #203, #32 ) ;
#48 = CC_DESIGN_APPROVAL ( #46, ( #15 ) ) ;
#49 = PERSON_AND_ORGANIZATION_ROLE ( 'design_owner' ) ;
#50 = ADVANCED_FACE ( 'NONE', ( #96 ), #146, .F. ) ;
#51 = DATE_AND_TIME ( #132, #179 ) ;
#52 = CC_DESIGN_DATE_AND_TIME_ASSIGNMENT ( #11, #67, ( #15 ) ) ;
#53 = DIRECTION ( 'NONE',  ( -4.275831445896958607E-31, -1.000000000000000000, -1.224646799147353207E-16 ) ) ;
#54 = EDGE_CURVE ( 'NONE', #6, #6, #89, .T. ) ;
#55 = CONICAL_SURFACE ( 'NONE', #17, 7.999999999999998224, 0.2617993877991502960 ) ;
#56 = FACE_OUTER_BOUND ( 'NONE', #58, .T. ) ;
#57 = ORIENTED_EDGE ( 'NONE', *, *, #206, .F. ) ;
#58 = EDGE_LOOP ( 'NONE', ( #7 ) ) ;
#59 = CARTESIAN_POINT ( 'NONE',  ( 1.047444401652940007E-13, -3.000000000000001332, 30.00000000000000000 ) ) ;
#60 = EDGE_LOOP ( 'NONE', ( #77 ) ) ;
#61 = MECHANICAL_CONTEXT ( 'NONE', #13, 'mechanical' ) ;
#62 = CC_DESIGN_PERSON_AND_ORGANIZATION_ASSIGNMENT ( #78, #130, ( #15 ) ) ;
#63 = COORDINATED_UNIVERSAL_TIME_OFFSET ( 1, 0, .AHEAD. ) ;
#64 = AXIS2_PLACEMENT_3D ( 'NONE', #138, #5, #70 ) ;
#65 = DIRECTION ( 'NONE',  ( 0.0000000000000000000, 0.0000000000000000000, 1.000000000000000000 ) ) ;
#66 = ORIENTED_EDGE ( 'NONE', *, *, #199, .T. ) ;
#67 = DATE_TIME_ROLE ( 'classification_date' ) ;
#68 = ADVANCED_FACE ( 'NONE', ( #19 ), #134, .T. ) ;
#69 = AXIS2_PLACEMENT_3D ( 'NONE', #29, #65, #157 ) ;
#70 = DIRECTION ( 'NONE',  ( 0.0000000000000000000, -1.000000000000000000, 0.0000000000000000000 ) ) ;
#71 = APPROVAL ( #106, 'UNSPECIFIED' ) ;
#72 = CARTESIAN_POINT ( 'NONE',  ( 2.793185071074506684E-13, 3.399999999999990585, 80.00000000000000000 ) ) ;
#73 = CIRCLE ( 'NONE', #64, 2.999999999999997335 ) ;
#74 = DIRECTION ( 'NONE',  ( 4.275831445896957731E-31, 1.000000000000000000, 1.224646799147353207E-16 ) ) ;
#75 = APPROVAL_DATE_TIME ( #154, #71 ) ;
#76 = PERSON_AND_ORGANIZATION ( #126, #3 ) ;
#77 = ORIENTED_EDGE ( 'NONE', *, *, #161, .T. ) ;
#78 = PERSON_AND_ORGANIZATION ( #126, #3 ) ;
#79 = ADVANCED_FACE ( 'NONE', ( #162 ), #2, .F. ) ;
#80 = DATE_TIME_ROLE ( 'creation_date' ) ;
#81 = CIRCLE ( 'NONE', #87, 3.999999999999996447 ) ;
#82 = DIRECTION ( 'NONE',  ( 3.491481338843133355E-15, -1.224646799147353207E-16, 1.000000000000000000 ) ) ;
#83 = AXIS2_PLACEMENT_3D ( 'NONE', #16, #82, #209 ) ;
#84 = ADVANCED_FACE ( 'NONE', ( #187, #163 ), #217, .T. ) ;
#85 = EDGE_LOOP ( 'NONE', ( #57 ) ) ;
#86 = DIRECTION ( 'NONE',  ( -3.491481338843133355E-15, 1.276467311168695266E-16, -1.000000000000000000 ) ) ;
#87 = AXIS2_PLACEMENT_3D ( 'NONE', #194, #86, #38 ) ;
#88 = CARTESIAN_POINT ( 'NONE',  ( 2.793185071074506684E-13, 2.549591630525143701E-32, 80.00000000000000000 ) ) ;
#89 = CIRCLE ( 'NONE', #92, 4.000000000000000000 ) ;
#90 = CALENDAR_DATE ( 2021, 8, 12 ) ;
#91 = SECURITY_CLASSIFICATION_LEVEL ( 'unclassified' ) ;
#92 = AXIS2_PLACEMENT_3D ( 'NONE', #186, #210, #189 ) ;
#93 = CC_DESIGN_DATE_AND_TIME_ASSIGNMENT ( #51, #80, ( #173 ) ) ;
#94 =( GEOMETRIC_REPRESENTATION_CONTEXT ( 3 ) GLOBAL_UNCERTAINTY_ASSIGNED_CONTEXT ( ( #35 ) ) GLOBAL_UNIT_ASSIGNED_CONTEXT ( ( #150, #103, #125 ) ) REPRESENTATION_CONTEXT ( 'NONE', 'WORKASPACE' ) );
#95 = DIRECTION ( 'NONE',  ( 3.491481338843133355E-15, -1.224646799147353207E-16, 1.000000000000000000 ) ) ;
#96 = FACE_OUTER_BOUND ( 'NONE', #39, .T. ) ;
#97 = CC_DESIGN_APPROVAL ( #33, ( #128 ) ) ;
#98 = CARTESIAN_POINT ( 'NONE',  ( -6.413786353521998128E-31, 2.249653418127172114E-32, -1.836981421658447292E-16 ) ) ;
#99 = PRODUCT_DEFINITION_SHAPE ( 'NONE', 'NONE',  #173 ) ;
#100 = VERTEX_POINT ( 'NONE', #59 ) ;
#101 = CYLINDRICAL_SURFACE ( 'NONE', #166, 3.999999999999996447 ) ;
#102 = ORIENTED_EDGE ( 'NONE', *, *, #199, .F. ) ;
#103 =( NAMED_UNIT ( * ) PLANE_ANGLE_UNIT ( ) SI_UNIT ( $, .RADIAN. ) );
#104 = ORIENTED_EDGE ( 'NONE', *, *, #182, .T. ) ;
#105 = CARTESIAN_POINT ( 'NONE',  ( 1.228470328561540237E-30, -6.836089494465367087E-32, 3.518478861378022600E-16 ) ) ;
#106 = APPROVAL_STATUS ( 'not_yet_approved' ) ;
#107 = MANIFOLD_SOLID_BREP ( 'Corps-Déplacer/Copier1[1]', #36 ) ;
#108 = DATE_AND_TIME ( #202, #143 ) ;
#109 = MANIFOLD_SOLID_BREP ( 'Corps-Déplacer/Copier1[2]', #205 ) ;
#110 = APPROVAL_DATE_TIME ( #47, #46 ) ;
#111 = ADVANCED_FACE ( 'NONE', ( #123, #198 ), #101, .T. ) ;
#112 = PERSON_AND_ORGANIZATION ( #126, #3 ) ;
#113 = APPROVAL_PERSON_ORGANIZATION ( #155, #33, #129 ) ;
#114 = AXIS2_PLACEMENT_3D ( 'NONE', #121, #169, #119 ) ;
#115 = PERSON_AND_ORGANIZATION ( #126, #3 ) ;
#116 = CC_DESIGN_PERSON_AND_ORGANIZATION_ASSIGNMENT ( #10, #49, ( #1 ) ) ;
#117 = DIRECTION ( 'NONE',  ( -4.275831445896958607E-31, -1.000000000000000000, -1.224646799147353207E-16 ) ) ;
#118 = CARTESIAN_POINT ( 'NONE',  ( 2.772236183041447758E-13, 3.999999999999990674, 79.39999999999999147 ) ) ;
#119 = DIRECTION ( 'NONE',  ( 0.0000000000000000000, 1.000000000000000000, 0.0000000000000000000 ) ) ;
#120 = EDGE_LOOP ( 'NONE', ( #104 ) ) ;
#121 = CARTESIAN_POINT ( 'NONE',  ( 2.793185071074506684E-13, -9.797174393178826052E-15, 80.00000000000000000 ) ) ;
#122 = EDGE_LOOP ( 'NONE', ( #124 ) ) ;
#123 = FACE_OUTER_BOUND ( 'NONE', #168, .T. ) ;
#124 = ORIENTED_EDGE ( 'NONE', *, *, #161, .F. ) ;
#125 =( NAMED_UNIT ( * ) SI_UNIT ( $, .STERADIAN. ) SOLID_ANGLE_UNIT ( ) );
#126 = PERSON ( 'UNSPECIFIED', 'UNSPECIFIED', 'UNSPECIFIED', ('UNSPECIFIED'), ('UNSPECIFIED'), ('UNSPECIFIED') ) ;
#127 = COORDINATED_UNIVERSAL_TIME_OFFSET ( 1, 0, .AHEAD. ) ;
#128 = PRODUCT_DEFINITION_FORMATION_WITH_SPECIFIED_SOURCE ( 'ANY', '', #1, .NOT_KNOWN. ) ;
#129 = APPROVAL_ROLE ( '' ) ;
#130 = PERSON_AND_ORGANIZATION_ROLE ( 'classification_officer' ) ;
#131 = CC_DESIGN_PERSON_AND_ORGANIZATION_ASSIGNMENT ( #31, #180, ( #128 ) ) ;
#132 = CALENDAR_DATE ( 2021, 8, 12 ) ;
#133 = ORIENTED_EDGE ( 'NONE', *, *, #54, .T. ) ;
#134 = PLANE ( 'NONE',  #181 ) ;
#135 = DIRECTION ( 'NONE',  ( 3.491481338843133355E-15, -1.224646799147353207E-16, 1.000000000000000000 ) ) ;
#136 = DIRECTION ( 'NONE',  ( -3.491481338843133355E-15, 1.224646799147353207E-16, -1.000000000000000000 ) ) ;
#137 = CC_DESIGN_PERSON_AND_ORGANIZATION_ASSIGNMENT ( #141, #218, ( #173 ) ) ;
#138 = CARTESIAN_POINT ( 'NONE',  ( 1.047444401652940007E-13, -3.829401933506085895E-15, 30.00000000000000000 ) ) ;
#139 = EDGE_CURVE ( 'NONE', #191, #191, #18, .T. ) ;
#140 = DIRECTION ( 'NONE',  ( -3.491481338843133355E-15, 1.224646799147353207E-16, -1.000000000000000000 ) ) ;
#141 = PERSON_AND_ORGANIZATION ( #126, #3 ) ;
#142 = APPROVAL_STATUS ( 'not_yet_approved' ) ;
#143 = LOCAL_TIME ( 9, 40, 36.00000000000000000, #14 ) ;
#144 = APPROVAL_STATUS ( 'not_yet_approved' ) ;
#145 = AXIS2_PLACEMENT_3D ( 'NONE', #88, #9, #214 ) ;
#146 = PLANE ( 'NONE',  #195 ) ;
#147 = ADVANCED_FACE ( 'NONE', ( #171 ), #153, .F. ) ;
#148 = DIRECTION ( 'NONE',  ( 3.491481338843133355E-15, -1.276467311168695266E-16, 1.000000000000000000 ) ) ;
#149 = AXIS2_PLACEMENT_3D ( 'NONE', #105, #151, #25 ) ;
#150 =( LENGTH_UNIT ( ) NAMED_UNIT ( * ) SI_UNIT ( .MILLI., .METRE. ) );
#151 = DIRECTION ( 'NONE',  ( 3.491481338843133355E-15, -1.276467311168695266E-16, 1.000000000000000000 ) ) ;
#152 = DIRECTION ( 'NONE',  ( 0.0000000000000000000, 1.000000000000000000, 0.0000000000000000000 ) ) ;
#153 = PLANE ( 'NONE',  #145 ) ;
#154 = DATE_AND_TIME ( #90, #215 ) ;
#155 = PERSON_AND_ORGANIZATION ( #126, #3 ) ;
#156 = CALENDAR_DATE ( 2021, 8, 12 ) ;
#157 = DIRECTION ( 'NONE',  ( 1.000000000000000000, 0.0000000000000000000, 0.0000000000000000000 ) ) ;
#158 = FACE_OUTER_BOUND ( 'NONE', #219, .T. ) ;
#159 = ADVANCED_FACE ( 'NONE', ( #211, #56 ), #55, .T. ) ;
#160 = AXIS2_PLACEMENT_3D ( 'NONE', #213, #140, #152 ) ;
#161 = EDGE_CURVE ( 'NONE', #37, #37, #45, .T. ) ;
#162 = FACE_OUTER_BOUND ( 'NONE', #193, .T. ) ;
#163 = FACE_BOUND ( 'NONE', #60, .T. ) ;
#164 = CC_DESIGN_SECURITY_CLASSIFICATION ( #15, ( #128 ) ) ;
#165 = CARTESIAN_POINT ( 'NONE',  ( 1.177748259155351246E-13, -4.000000000000000888, 33.73205080756886076 ) ) ;
#166 = AXIS2_PLACEMENT_3D ( 'NONE', #44, #136, #74 ) ;
#167 = DIRECTION ( 'NONE',  ( 0.0000000000000000000, -1.000000000000000000, 0.0000000000000000000 ) ) ;
#168 = EDGE_LOOP ( 'NONE', ( #133 ) ) ;
#169 = DIRECTION ( 'NONE',  ( -3.491481338843133355E-15, 1.224646799147353207E-16, -1.000000000000000000 ) ) ;
#170 = PRODUCT_RELATED_PRODUCT_CATEGORY ( 'detail', '', ( #1 ) ) ;
#171 = FACE_OUTER_BOUND ( 'NONE', #122, .T. ) ;
#172 = APPROVAL_PERSON_ORGANIZATION ( #76, #46, #28 ) ;
#173 = PRODUCT_DEFINITION ( 'UNKNOWN', '', #128, #4 ) ;
#174 = ORIENTED_EDGE ( 'NONE', *, *, #54, .F. ) ;
#175 = PERSON_AND_ORGANIZATION_ROLE ( 'creator' ) ;
#176 = APPLICATION_CONTEXT ( 'configuration controlled 3d designs of mechanical parts and assemblies' ) ;
#177 = SHAPE_DEFINITION_REPRESENTATION ( #99, #212 ) ;
#178 = ORIENTED_EDGE ( 'NONE', *, *, #139, .F. ) ;
#179 = LOCAL_TIME ( 9, 40, 36.00000000000000000, #127 ) ;
#180 = PERSON_AND_ORGANIZATION_ROLE ( 'design_supplier' ) ;
#181 = AXIS2_PLACEMENT_3D ( 'NONE', #207, #95, #53 ) ;
#182 = EDGE_CURVE ( 'NONE', #216, #216, #208, .T. ) ;
#183 = COORDINATED_UNIVERSAL_TIME_OFFSET ( 1, 0, .AHEAD. ) ;
#184 = LOCAL_TIME ( 9, 40, 36.00000000000000000, #222 ) ;
#185 = APPROVAL_PERSON_ORGANIZATION ( #115, #71, #26 ) ;
#186 = CARTESIAN_POINT ( 'NONE',  ( 2.772236183041447758E-13, -9.723695585229984332E-15, 79.39999999999999147 ) ) ;
#187 = FACE_OUTER_BOUND ( 'NONE', #43, .T. ) ;
#188 = CARTESIAN_POINT ( 'NONE',  ( -6.413839710158237013E-31, 0.0000000000000000000, -1.836996703606440502E-16 ) ) ;
#189 = DIRECTION ( 'NONE',  ( 0.0000000000000000000, 1.000000000000000000, 0.0000000000000000000 ) ) ;
#190 = AXIS2_PLACEMENT_3D ( 'NONE', #188, #148, #34 ) ;
#191 = VERTEX_POINT ( 'NONE', #21 ) ;
#192 = DIRECTION ( 'NONE',  ( 3.491481338843133355E-15, -1.276467311168695266E-16, 1.000000000000000000 ) ) ;
#193 = EDGE_LOOP ( 'NONE', ( #102 ) ) ;
#194 = CARTESIAN_POINT ( 'NONE',  ( 1.177748259155351246E-13, -4.305786019454323639E-15, 33.73205080756886076 ) ) ;
#195 = AXIS2_PLACEMENT_3D ( 'NONE', #98, #135, #117 ) ;
#196 = DIRECTION ( 'NONE',  ( 3.491481338843133355E-15, -1.276467311168695266E-16, 1.000000000000000000 ) ) ;
#197 = EDGE_LOOP ( 'NONE', ( #27 ) ) ;
#198 = FACE_OUTER_BOUND ( 'NONE', #85, .T. ) ;
#199 = EDGE_CURVE ( 'NONE', #100, #100, #73, .T. ) ;
#200 = APPLICATION_PROTOCOL_DEFINITION ( 'international standard', 'config_control_design', 1994, #176 ) ;
#201 = CC_DESIGN_APPROVAL ( #71, ( #173 ) ) ;
#202 = CALENDAR_DATE ( 2021, 8, 12 ) ;
#203 = CALENDAR_DATE ( 2021, 8, 12 ) ;
#204 = APPLICATION_PROTOCOL_DEFINITION ( 'international standard', 'config_control_design', 1994, #13 ) ;
#205 = CLOSED_SHELL ( 'NONE', ( #68, #42, #50 ) ) ;
#206 = EDGE_CURVE ( 'NONE', #20, #20, #81, .T. ) ;
#207 = CARTESIAN_POINT ( 'NONE',  ( 1.047444401652940007E-13, 2.999519565323705910E-32, 30.00000000000000000 ) ) ;
#208 = CIRCLE ( 'NONE', #40, 2.999999999999997335 ) ;
#209 = DIRECTION ( 'NONE',  ( -4.275831445896958607E-31, -1.000000000000000000, -1.224646799147353207E-16 ) ) ;
#210 = DIRECTION ( 'NONE',  ( -3.491481338843133355E-15, 1.224646799147353207E-16, -1.000000000000000000 ) ) ;
#211 = FACE_BOUND ( 'NONE', #22, .T. ) ;
#212 = ADVANCED_BREP_SHAPE_REPRESENTATION ( '372620', ( #107, #109, #69 ), #94 ) ;
#213 = CARTESIAN_POINT ( 'NONE',  ( 2.793185071074506684E-13, -9.797174393178826052E-15, 80.00000000000000000 ) ) ;
#214 = DIRECTION ( 'NONE',  ( 4.275831445896958607E-31, 1.000000000000000000, 1.224646799147353207E-16 ) ) ;
#215 = LOCAL_TIME ( 9, 40, 36.00000000000000000, #63 ) ;
#216 = VERTEX_POINT ( 'NONE', #8 ) ;
#217 = CONICAL_SURFACE ( 'NONE', #114, 3.400000000000000799, 0.7853981633974450594 ) ;
#218 = PERSON_AND_ORGANIZATION_ROLE ( 'creator' ) ;
#219 = EDGE_LOOP ( 'NONE', ( #221 ) ) ;
#220 = APPROVAL_DATE_TIME ( #108, #33 ) ;
#221 = ORIENTED_EDGE ( 'NONE', *, *, #182, .F. ) ;
#222 = COORDINATED_UNIVERSAL_TIME_OFFSET ( 1, 0, .AHEAD. ) ;
#223 = CYLINDRICAL_SURFACE ( 'NONE', #190, 2.999999999999996891 ) ;
ENDSEC;
END-ISO-10303-21;
