ISO-10303-21;
HEADER;
FILE_DESCRIPTION (( 'STEP AP203' ),
    '1' );
FILE_NAME ('372619.step',
    '2021-12-08T08:40:35',
    ( '' ),
    ( '' ),
    'SwSTEP 2.0',
    'SolidWorks 2019',
    '' );
FILE_SCHEMA (( 'CONFIG_CONTROL_DESIGN' ));
ENDSEC;

DATA;
#1 = SECURITY_CLASSIFICATION ( '', '', #156 ) ;
#2 = DIRECTION ( 'NONE',  ( -4.275831445896958607E-31, -1.000000000000000000, -1.224646799147353207E-16 ) ) ;
#3 = FACE_OUTER_BOUND ( 'NONE', #70, .T. ) ;
#4 = DIRECTION ( 'NONE',  ( -3.491481338843133355E-15, 1.224646799147353207E-16, -1.000000000000000000 ) ) ;
#5 = DATE_AND_TIME ( #184, #76 ) ;
#6 = AXIS2_PLACEMENT_3D ( 'NONE', #21, #142, #59 ) ;
#7 = VERTEX_POINT ( 'NONE', #218 ) ;
#8 = UNCERTAINTY_MEASURE_WITH_UNIT (LENGTH_MEASURE( 1.000000000000000082E-05 ), #83, 'distance_accuracy_value', 'NONE');
#9 = VERTEX_POINT ( 'NONE', #65 ) ;
#10 = DATE_AND_TIME ( #63, #144 ) ;
#11 = PRODUCT_DEFINITION_FORMATION_WITH_SPECIFIED_SOURCE ( 'ANY', '', #86, .NOT_KNOWN. ) ;
#12 = COORDINATED_UNIVERSAL_TIME_OFFSET ( 1, 0, .AHEAD. ) ;
#13 = PERSON_AND_ORGANIZATION_ROLE ( 'classification_officer' ) ;
#14 = CC_DESIGN_APPROVAL ( #146, ( #62 ) ) ;
#15 = CC_DESIGN_PERSON_AND_ORGANIZATION_ASSIGNMENT ( #217, #134, ( #86 ) ) ;
#16 = DIRECTION ( 'NONE',  ( -4.456761796588770537E-31, -1.000000000000000000, -1.276467311168695512E-16 ) ) ;
#17 = DIRECTION ( 'NONE',  ( -3.491481338843133355E-15, 1.276467311168695266E-16, -1.000000000000000000 ) ) ;
#18 = DIRECTION ( 'NONE',  ( -4.275831445896958607E-31, -1.000000000000000000, -1.224646799147353207E-16 ) ) ;
#19 = AXIS2_PLACEMENT_3D ( 'NONE', #39, #214, #18 ) ;
#20 = DIRECTION ( 'NONE',  ( -4.456761796588770537E-31, -1.000000000000000000, -1.276467311168695266E-16 ) ) ;
#21 = CARTESIAN_POINT ( 'NONE',  ( 2.772236183041447758E-13, -9.723695585229984332E-15, 79.39999999999999147 ) ) ;
#22 = VERTEX_POINT ( 'NONE', #115 ) ;
#23 = CARTESIAN_POINT ( 'NONE',  ( 0.0000000000000000000, 0.0000000000000000000, 0.0000000000000000000 ) ) ;
#24 = DATE_AND_TIME ( #199, #207 ) ;
#25 = CARTESIAN_POINT ( 'NONE',  ( 1.003174192213194578E-13, -4.000000000000000000, 28.73205080756886076 ) ) ;
#26 = DATE_AND_TIME ( #177, #27 ) ;
#27 = LOCAL_TIME ( 9, 40, 35.00000000000000000, #98 ) ;
#28 = APPROVAL_STATUS ( 'not_yet_approved' ) ;
#29 = EDGE_LOOP ( 'NONE', ( #88 ) ) ;
#30 = ORIENTED_EDGE ( 'NONE', *, *, #193, .T. ) ;
#31 = APPLICATION_CONTEXT ( 'configuration controlled 3d designs of mechanical parts and assemblies' ) ;
#32 = LOCAL_TIME ( 9, 40, 35.00000000000000000, #157 ) ;
#33 = MANIFOLD_SOLID_BREP ( 'Corps-Déplacer/Copier1[2]', #64 ) ;
#34 = DIRECTION ( 'NONE',  ( 4.275831445896957731E-31, 1.000000000000000000, 1.224646799147353207E-16 ) ) ;
#35 = DIRECTION ( 'NONE',  ( -3.491481338843133355E-15, 1.224646799147353207E-16, -1.000000000000000000 ) ) ;
#36 = FACE_OUTER_BOUND ( 'NONE', #100, .T. ) ;
#37 = MANIFOLD_SOLID_BREP ( 'Corps-Déplacer/Copier1[1]', #123 ) ;
#38 = ADVANCED_FACE ( 'NONE', ( #77, #145 ), #165, .T. ) ;
#39 = CARTESIAN_POINT ( 'NONE',  ( 8.728703347107833388E-14, 2.999519565323705910E-32, 25.00000000000000000 ) ) ;
#40 = CC_DESIGN_APPROVAL ( #159, ( #1 ) ) ;
#41 = FACE_OUTER_BOUND ( 'NONE', #29, .T. ) ;
#42 = APPLICATION_PROTOCOL_DEFINITION ( 'international standard', 'config_control_design', 1994, #31 ) ;
#43 = CARTESIAN_POINT ( 'NONE',  ( 2.772236183041447758E-13, 3.999999999999990674, 79.39999999999999147 ) ) ;
#44 =( NAMED_UNIT ( * ) PLANE_ANGLE_UNIT ( ) SI_UNIT ( $, .RADIAN. ) );
#45 = APPROVAL_DATE_TIME ( #24, #146 ) ;
#46 = APPROVAL_ROLE ( '' ) ;
#47 = DATE_TIME_ROLE ( 'classification_date' ) ;
#48 = AXIS2_PLACEMENT_3D ( 'NONE', #194, #4, #34 ) ;
#49 = EDGE_LOOP ( 'NONE', ( #121 ) ) ;
#50 = ORIENTED_EDGE ( 'NONE', *, *, #133, .T. ) ;
#51 = PERSON_AND_ORGANIZATION ( #130, #113 ) ;
#52 = APPROVAL_PERSON_ORGANIZATION ( #171, #146, #216 ) ;
#53 = ORIENTED_EDGE ( 'NONE', *, *, #133, .F. ) ;
#54 = CARTESIAN_POINT ( 'NONE',  ( 8.728703347107833388E-14, -3.191168277921738509E-15, 25.00000000000000000 ) ) ;
#55 = EDGE_CURVE ( 'NONE', #9, #9, #211, .T. ) ;
#56 = CYLINDRICAL_SURFACE ( 'NONE', #109, 2.999999999999997335 ) ;
#57 = AXIS2_PLACEMENT_3D ( 'NONE', #180, #17, #150 ) ;
#58 = FACE_OUTER_BOUND ( 'NONE', #71, .T. ) ;
#59 = DIRECTION ( 'NONE',  ( 0.0000000000000000000, 1.000000000000000000, 0.0000000000000000000 ) ) ;
#60 = CARTESIAN_POINT ( 'NONE',  ( 8.728703347107833388E-14, 2.999519565323705910E-32, 25.00000000000000000 ) ) ;
#61 = VERTEX_POINT ( 'NONE', #25 ) ;
#62 = PRODUCT_DEFINITION ( 'UNKNOWN', '', #11, #151 ) ;
#63 = CALENDAR_DATE ( 2021, 8, 12 ) ;
#64 = CLOSED_SHELL ( 'NONE', ( #221, #219, #204 ) ) ;
#65 = CARTESIAN_POINT ( 'NONE',  ( 8.728703347107833388E-14, -3.000000000000000888, 25.00000000000000000 ) ) ;
#66 = CC_DESIGN_SECURITY_CLASSIFICATION ( #1, ( #11 ) ) ;
#67 = EDGE_CURVE ( 'NONE', #7, #7, #93, .T. ) ;
#68 = APPROVAL_STATUS ( 'not_yet_approved' ) ;
#69 = PERSON_AND_ORGANIZATION ( #130, #113 ) ;
#70 = EDGE_LOOP ( 'NONE', ( #30 ) ) ;
#71 = EDGE_LOOP ( 'NONE', ( #84 ) ) ;
#72 = ORIENTED_EDGE ( 'NONE', *, *, #55, .F. ) ;
#73 = AXIS2_PLACEMENT_3D ( 'NONE', #125, #35, #143 ) ;
#74 = EDGE_LOOP ( 'NONE', ( #188 ) ) ;
#75 = FACE_OUTER_BOUND ( 'NONE', #78, .T. ) ;
#76 = LOCAL_TIME ( 9, 40, 35.00000000000000000, #12 ) ;
#77 = FACE_OUTER_BOUND ( 'NONE', #74, .T. ) ;
#78 = EDGE_LOOP ( 'NONE', ( #205 ) ) ;
#79 = FACE_OUTER_BOUND ( 'NONE', #175, .T. ) ;
#80 = COORDINATED_UNIVERSAL_TIME_OFFSET ( 1, 0, .AHEAD. ) ;
#81 = PERSON_AND_ORGANIZATION ( #130, #113 ) ;
#82 = DIRECTION ( 'NONE',  ( 0.0000000000000000000, 0.0000000000000000000, 1.000000000000000000 ) ) ;
#83 =( LENGTH_UNIT ( ) NAMED_UNIT ( * ) SI_UNIT ( .MILLI., .METRE. ) );
#84 = ORIENTED_EDGE ( 'NONE', *, *, #222, .F. ) ;
#85 =( GEOMETRIC_REPRESENTATION_CONTEXT ( 3 ) GLOBAL_UNCERTAINTY_ASSIGNED_CONTEXT ( ( #8 ) ) GLOBAL_UNIT_ASSIGNED_CONTEXT ( ( #83, #44, #152 ) ) REPRESENTATION_CONTEXT ( 'NONE', 'WORKASPACE' ) );
#86 = PRODUCT ( '372619', '372619', '', ( #202 ) ) ;
#87 = CC_DESIGN_PERSON_AND_ORGANIZATION_ASSIGNMENT ( #112, #185, ( #11 ) ) ;
#88 = ORIENTED_EDGE ( 'NONE', *, *, #222, .T. ) ;
#89 = CARTESIAN_POINT ( 'NONE',  ( 8.728703347107833388E-14, -3.191168277921738509E-15, 25.00000000000000000 ) ) ;
#90 = ADVANCED_FACE ( 'NONE', ( #179, #58 ), #162, .T. ) ;
#91 = FACE_OUTER_BOUND ( 'NONE', #137, .T. ) ;
#92 = PLANE ( 'NONE',  #220 ) ;
#93 = CIRCLE ( 'NONE', #73, 3.400000000000000799 ) ;
#94 = CARTESIAN_POINT ( 'NONE',  ( 2.793185071074506684E-13, -9.797174393178826052E-15, 80.00000000000000000 ) ) ;
#95 = DIRECTION ( 'NONE',  ( 3.491481338843133355E-15, -1.276467311168695266E-16, 1.000000000000000000 ) ) ;
#96 = ADVANCED_FACE ( 'NONE', ( #36 ), #107, .F. ) ;
#97 = ADVANCED_FACE ( 'NONE', ( #190, #41 ), #189, .T. ) ;
#98 = COORDINATED_UNIVERSAL_TIME_OFFSET ( 1, 0, .AHEAD. ) ;
#99 = DATE_AND_TIME ( #117, #32 ) ;
#100 = EDGE_LOOP ( 'NONE', ( #119 ) ) ;
#101 = ORIENTED_EDGE ( 'NONE', *, *, #55, .T. ) ;
#102 = CC_DESIGN_APPROVAL ( #155, ( #11 ) ) ;
#103 = DIRECTION ( 'NONE',  ( 3.491481338843133355E-15, -1.276467311168695266E-16, 1.000000000000000000 ) ) ;
#104 = AXIS2_PLACEMENT_3D ( 'NONE', #181, #167, #209 ) ;
#105 = DIRECTION ( 'NONE',  ( 0.0000000000000000000, -1.000000000000000000, 0.0000000000000000000 ) ) ;
#106 = ADVANCED_BREP_SHAPE_REPRESENTATION ( '372619', ( #37, #33, #114 ), #85 ) ;
#107 = PLANE ( 'NONE',  #104 ) ;
#108 = CARTESIAN_POINT ( 'NONE',  ( 1.228470328561540237E-30, -6.836089494465367087E-32, 3.518478861378022600E-16 ) ) ;
#109 = AXIS2_PLACEMENT_3D ( 'NONE', #195, #182, #20 ) ;
#110 = EDGE_LOOP ( 'NONE', ( #141 ) ) ;
#111 = DATE_TIME_ROLE ( 'creation_date' ) ;
#112 = PERSON_AND_ORGANIZATION ( #130, #113 ) ;
#113 = ORGANIZATION ( 'UNSPECIFIED', 'UNSPECIFIED', '' ) ;
#114 = AXIS2_PLACEMENT_3D ( 'NONE', #23, #82, #170 ) ;
#115 = CARTESIAN_POINT ( 'NONE',  ( 8.728703347107833388E-14, -3.000000000000000888, 25.00000000000000000 ) ) ;
#116 = APPROVAL_ROLE ( '' ) ;
#117 = CALENDAR_DATE ( 2021, 8, 12 ) ;
#118 = ADVANCED_FACE ( 'NONE', ( #91 ), #163, .F. ) ;
#119 = ORIENTED_EDGE ( 'NONE', *, *, #67, .F. ) ;
#120 = APPLICATION_CONTEXT ( 'configuration controlled 3d designs of mechanical parts and assemblies' ) ;
#121 = ORIENTED_EDGE ( 'NONE', *, *, #166, .T. ) ;
#122 = CC_DESIGN_PERSON_AND_ORGANIZATION_ASSIGNMENT ( #132, #198, ( #11 ) ) ;
#123 = CLOSED_SHELL ( 'NONE', ( #90, #38, #96, #97, #118 ) ) ;
#124 = AXIS2_PLACEMENT_3D ( 'NONE', #108, #131, #16 ) ;
#125 = CARTESIAN_POINT ( 'NONE',  ( 2.793185071074506684E-13, -9.797174393178826052E-15, 80.00000000000000000 ) ) ;
#126 = CARTESIAN_POINT ( 'NONE',  ( 1.524389622222840165E-13, -5.573088707662931173E-15, 43.66025403784431802 ) ) ;
#127 = AXIS2_PLACEMENT_3D ( 'NONE', #126, #103, #105 ) ;
#128 = DIRECTION ( 'NONE',  ( 0.0000000000000000000, 1.000000000000000000, 0.0000000000000000000 ) ) ;
#129 = DIRECTION ( 'NONE',  ( 0.0000000000000000000, -1.000000000000000000, 0.0000000000000000000 ) ) ;
#130 = PERSON ( 'UNSPECIFIED', 'UNSPECIFIED', 'UNSPECIFIED', ('UNSPECIFIED'), ('UNSPECIFIED'), ('UNSPECIFIED') ) ;
#131 = DIRECTION ( 'NONE',  ( 3.491481338843133355E-15, -1.276467311168695266E-16, 1.000000000000000000 ) ) ;
#132 = PERSON_AND_ORGANIZATION ( #130, #113 ) ;
#133 = EDGE_CURVE ( 'NONE', #148, #148, #213, .T. ) ;
#134 = PERSON_AND_ORGANIZATION_ROLE ( 'design_owner' ) ;
#135 = COORDINATED_UNIVERSAL_TIME_OFFSET ( 1, 0, .AHEAD. ) ;
#136 = AXIS2_PLACEMENT_3D ( 'NONE', #89, #95, #129 ) ;
#137 = EDGE_LOOP ( 'NONE', ( #72 ) ) ;
#138 = EDGE_LOOP ( 'NONE', ( #50 ) ) ;
#139 = AXIS2_PLACEMENT_3D ( 'NONE', #94, #212, #128 ) ;
#140 = CC_DESIGN_DATE_AND_TIME_ASSIGNMENT ( #99, #47, ( #1 ) ) ;
#141 = ORIENTED_EDGE ( 'NONE', *, *, #67, .T. ) ;
#142 = DIRECTION ( 'NONE',  ( -3.491481338843133355E-15, 1.224646799147353207E-16, -1.000000000000000000 ) ) ;
#143 = DIRECTION ( 'NONE',  ( 0.0000000000000000000, 1.000000000000000000, 0.0000000000000000000 ) ) ;
#144 = LOCAL_TIME ( 9, 40, 35.00000000000000000, #80 ) ;
#145 = FACE_BOUND ( 'NONE', #110, .T. ) ;
#146 = APPROVAL ( #173, 'UNSPECIFIED' ) ;
#147 = PLANE ( 'NONE',  #158 ) ;
#148 = VERTEX_POINT ( 'NONE', #154 ) ;
#149 = APPROVAL_DATE_TIME ( #5, #155 ) ;
#150 = DIRECTION ( 'NONE',  ( 0.0000000000000000000, -1.000000000000000000, 0.0000000000000000000 ) ) ;
#151 = DESIGN_CONTEXT ( 'detailed design', #120, 'design' ) ;
#152 =( NAMED_UNIT ( * ) SI_UNIT ( $, .STERADIAN. ) SOLID_ANGLE_UNIT ( ) );
#153 = CIRCLE ( 'NONE', #57, 3.999999999999996447 ) ;
#154 = CARTESIAN_POINT ( 'NONE',  ( -1.085582104150895230E-31, -2.999999999999996447, -3.109230721280588211E-17 ) ) ;
#155 = APPROVAL ( #68, 'UNSPECIFIED' ) ;
#156 = SECURITY_CLASSIFICATION_LEVEL ( 'unclassified' ) ;
#157 = COORDINATED_UNIVERSAL_TIME_OFFSET ( 1, 0, .AHEAD. ) ;
#158 = AXIS2_PLACEMENT_3D ( 'NONE', #60, #196, #191 ) ;
#159 = APPROVAL ( #28, 'UNSPECIFIED' ) ;
#160 = EDGE_LOOP ( 'NONE', ( #101 ) ) ;
#161 = CIRCLE ( 'NONE', #6, 4.000000000000000000 ) ;
#162 = CYLINDRICAL_SURFACE ( 'NONE', #48, 3.999999999999996447 ) ;
#163 = PLANE ( 'NONE',  #19 ) ;
#164 = CARTESIAN_POINT ( 'NONE',  ( -6.413786353521998128E-31, 2.249653418127172114E-32, -1.836981421658447292E-16 ) ) ;
#165 = CONICAL_SURFACE ( 'NONE', #139, 3.400000000000000799, 0.7853981633974450594 ) ;
#166 = EDGE_CURVE ( 'NONE', #201, #201, #161, .T. ) ;
#167 = DIRECTION ( 'NONE',  ( -3.491481338843133355E-15, 1.224646799147353207E-16, -1.000000000000000000 ) ) ;
#168 = DIRECTION ( 'NONE',  ( 0.0000000000000000000, -1.000000000000000000, 0.0000000000000000000 ) ) ;
#169 = PERSON_AND_ORGANIZATION ( #130, #113 ) ;
#170 = DIRECTION ( 'NONE',  ( 1.000000000000000000, 0.0000000000000000000, 0.0000000000000000000 ) ) ;
#171 = PERSON_AND_ORGANIZATION ( #130, #113 ) ;
#172 = PERSON_AND_ORGANIZATION_ROLE ( 'creator' ) ;
#173 = APPROVAL_STATUS ( 'not_yet_approved' ) ;
#174 = SHAPE_DEFINITION_REPRESENTATION ( #206, #106 ) ;
#175 = EDGE_LOOP ( 'NONE', ( #53 ) ) ;
#176 = APPROVAL_PERSON_ORGANIZATION ( #81, #155, #116 ) ;
#177 = CALENDAR_DATE ( 2021, 8, 12 ) ;
#178 = CC_DESIGN_DATE_AND_TIME_ASSIGNMENT ( #10, #111, ( #62 ) ) ;
#179 = FACE_OUTER_BOUND ( 'NONE', #49, .T. ) ;
#180 = CARTESIAN_POINT ( 'NONE',  ( 1.003174192213194578E-13, -3.667552363869976253E-15, 28.73205080756886076 ) ) ;
#181 = CARTESIAN_POINT ( 'NONE',  ( 2.793185071074506684E-13, 2.549591630525143701E-32, 80.00000000000000000 ) ) ;
#182 = DIRECTION ( 'NONE',  ( 3.491481338843133355E-15, -1.276467311168695266E-16, 1.000000000000000000 ) ) ;
#183 = PRODUCT_RELATED_PRODUCT_CATEGORY ( 'detail', '', ( #86 ) ) ;
#184 = CALENDAR_DATE ( 2021, 8, 12 ) ;
#185 = PERSON_AND_ORGANIZATION_ROLE ( 'design_supplier' ) ;
#186 = CC_DESIGN_PERSON_AND_ORGANIZATION_ASSIGNMENT ( #51, #13, ( #1 ) ) ;
#187 = APPLICATION_PROTOCOL_DEFINITION ( 'international standard', 'config_control_design', 1994, #120 ) ;
#188 = ORIENTED_EDGE ( 'NONE', *, *, #166, .F. ) ;
#189 = CONICAL_SURFACE ( 'NONE', #127, 7.999999999999996447, 0.2617993877991502960 ) ;
#190 = FACE_BOUND ( 'NONE', #160, .T. ) ;
#191 = DIRECTION ( 'NONE',  ( -4.275831445896958607E-31, -1.000000000000000000, -1.224646799147353207E-16 ) ) ;
#192 = AXIS2_PLACEMENT_3D ( 'NONE', #54, #215, #168 ) ;
#193 = EDGE_CURVE ( 'NONE', #22, #22, #200, .T. ) ;
#194 = CARTESIAN_POINT ( 'NONE',  ( 0.0000000000000000000, 0.0000000000000000000, 0.0000000000000000000 ) ) ;
#195 = CARTESIAN_POINT ( 'NONE',  ( -6.413839710158237013E-31, 0.0000000000000000000, -1.836996703606440502E-16 ) ) ;
#196 = DIRECTION ( 'NONE',  ( 3.491481338843133355E-15, -1.224646799147353207E-16, 1.000000000000000000 ) ) ;
#197 = APPROVAL_PERSON_ORGANIZATION ( #69, #159, #46 ) ;
#198 = PERSON_AND_ORGANIZATION_ROLE ( 'creator' ) ;
#199 = CALENDAR_DATE ( 2021, 8, 12 ) ;
#200 = CIRCLE ( 'NONE', #136, 2.999999999999997780 ) ;
#201 = VERTEX_POINT ( 'NONE', #43 ) ;
#202 = MECHANICAL_CONTEXT ( 'NONE', #31, 'mechanical' ) ;
#203 = APPROVAL_DATE_TIME ( #26, #159 ) ;
#204 = ADVANCED_FACE ( 'NONE', ( #79 ), #92, .F. ) ;
#205 = ORIENTED_EDGE ( 'NONE', *, *, #193, .F. ) ;
#206 = PRODUCT_DEFINITION_SHAPE ( 'NONE', 'NONE',  #62 ) ;
#207 = LOCAL_TIME ( 9, 40, 35.00000000000000000, #135 ) ;
#208 = CC_DESIGN_PERSON_AND_ORGANIZATION_ASSIGNMENT ( #169, #172, ( #62 ) ) ;
#209 = DIRECTION ( 'NONE',  ( 4.275831445896958607E-31, 1.000000000000000000, 1.224646799147353207E-16 ) ) ;
#210 = FACE_OUTER_BOUND ( 'NONE', #138, .T. ) ;
#211 = CIRCLE ( 'NONE', #192, 2.999999999999997780 ) ;
#212 = DIRECTION ( 'NONE',  ( -3.491481338843133355E-15, 1.224646799147353207E-16, -1.000000000000000000 ) ) ;
#213 = CIRCLE ( 'NONE', #124, 2.999999999999996447 ) ;
#214 = DIRECTION ( 'NONE',  ( 3.491481338843133355E-15, -1.224646799147353207E-16, 1.000000000000000000 ) ) ;
#215 = DIRECTION ( 'NONE',  ( 3.491481338843133355E-15, -1.276467311168695266E-16, 1.000000000000000000 ) ) ;
#216 = APPROVAL_ROLE ( '' ) ;
#217 = PERSON_AND_ORGANIZATION ( #130, #113 ) ;
#218 = CARTESIAN_POINT ( 'NONE',  ( 2.793185071074506684E-13, 3.399999999999990585, 80.00000000000000000 ) ) ;
#219 = ADVANCED_FACE ( 'NONE', ( #210, #75 ), #56, .T. ) ;
#220 = AXIS2_PLACEMENT_3D ( 'NONE', #164, #223, #2 ) ;
#221 = ADVANCED_FACE ( 'NONE', ( #3 ), #147, .T. ) ;
#222 = EDGE_CURVE ( 'NONE', #61, #61, #153, .T. ) ;
#223 = DIRECTION ( 'NONE',  ( 3.491481338843133355E-15, -1.224646799147353207E-16, 1.000000000000000000 ) ) ;
ENDSEC;
END-ISO-10303-21;
