ISO-10303-21;
HEADER;
FILE_DESCRIPTION (( 'STEP AP203' ),
    '1' );
FILE_NAME ('372618.step',
    '2021-12-08T08:40:34',
    ( '' ),
    ( '' ),
    'SwSTEP 2.0',
    'SolidWorks 2019',
    '' );
FILE_SCHEMA (( 'CONFIG_CONTROL_DESIGN' ));
ENDSEC;

DATA;
#1 = DIRECTION ( 'NONE',  ( -3.491481338843133355E-15, 1.224646799147353207E-16, -1.000000000000000000 ) ) ;
#2 = DIRECTION ( 'NONE',  ( 0.0000000000000000000, -1.000000000000000000, 0.0000000000000000000 ) ) ;
#3 = EDGE_LOOP ( 'NONE', ( #41 ) ) ;
#4 = AXIS2_PLACEMENT_3D ( 'NONE', #182, #168, #132 ) ;
#5 = DIRECTION ( 'NONE',  ( -4.456761796588771413E-31, -1.000000000000000000, -1.276467311168695266E-16 ) ) ;
#6 = APPLICATION_CONTEXT ( 'configuration controlled 3d designs of mechanical parts and assemblies' ) ;
#7 =( NAMED_UNIT ( * ) SI_UNIT ( $, .STERADIAN. ) SOLID_ANGLE_UNIT ( ) );
#8 = CYLINDRICAL_SURFACE ( 'NONE', #136, 2.999999999999996003 ) ;
#9 = LOCAL_TIME ( 9, 40, 34.00000000000000000, #67 ) ;
#10 = PERSON_AND_ORGANIZATION ( #81, #206 ) ;
#11 = APPROVAL_PERSON_ORGANIZATION ( #104, #34, #202 ) ;
#12 = APPROVAL_DATE_TIME ( #87, #122 ) ;
#13 = CARTESIAN_POINT ( 'NONE',  ( 0.0000000000000000000, 0.0000000000000000000, 0.0000000000000000000 ) ) ;
#14 = APPROVAL_STATUS ( 'not_yet_approved' ) ;
#15 = COORDINATED_UNIVERSAL_TIME_OFFSET ( 1, 0, .AHEAD. ) ;
#16 = DIRECTION ( 'NONE',  ( 0.0000000000000000000, 0.0000000000000000000, 1.000000000000000000 ) ) ;
#17 = PRODUCT_RELATED_PRODUCT_CATEGORY ( 'detail', '', ( #28 ) ) ;
#18 = EDGE_LOOP ( 'NONE', ( #191 ) ) ;
#19 = ORIENTED_EDGE ( 'NONE', *, *, #91, .T. ) ;
#20 = CARTESIAN_POINT ( 'NONE',  ( 6.982962677686266711E-14, -2.999999999999998224, 20.00000000000000000 ) ) ;
#21 = FACE_OUTER_BOUND ( 'NONE', #130, .T. ) ;
#22 = DIRECTION ( 'NONE',  ( -4.275831445896958607E-31, -1.000000000000000000, -1.224646799147353207E-16 ) ) ;
#23 = EDGE_CURVE ( 'NONE', #135, #135, #89, .T. ) ;
#24 = EDGE_LOOP ( 'NONE', ( #108 ) ) ;
#25 = ORIENTED_EDGE ( 'NONE', *, *, #74, .T. ) ;
#26 = FACE_OUTER_BOUND ( 'NONE', #95, .T. ) ;
#27 = VERTEX_POINT ( 'NONE', #151 ) ;
#28 = PRODUCT ( '372618', '372618', '', ( #143 ) ) ;
#29 = PERSON_AND_ORGANIZATION_ROLE ( 'classification_officer' ) ;
#30 = DATE_AND_TIME ( #204, #109 ) ;
#31 = ADVANCED_FACE ( 'NONE', ( #165 ), #38, .T. ) ;
#32 = PERSON_AND_ORGANIZATION ( #81, #206 ) ;
#33 = CLOSED_SHELL ( 'NONE', ( #45, #192, #58, #183, #107 ) ) ;
#34 = APPROVAL ( #124, 'UNSPECIFIED' ) ;
#35 = DIRECTION ( 'NONE',  ( 0.0000000000000000000, 1.000000000000000000, 0.0000000000000000000 ) ) ;
#36 = MANIFOLD_SOLID_BREP ( 'Corps-Déplacer/Copier1[1]', #33 ) ;
#37 = CC_DESIGN_SECURITY_CLASSIFICATION ( #44, ( #116 ) ) ;
#38 = PLANE ( 'NONE',  #103 ) ;
#39 = CARTESIAN_POINT ( 'NONE',  ( 2.772236183041447758E-13, 3.999999999999990674, 79.39999999999999147 ) ) ;
#40 = CC_DESIGN_PERSON_AND_ORGANIZATION_ASSIGNMENT ( #218, #157, ( #126 ) ) ;
#41 = ORIENTED_EDGE ( 'NONE', *, *, #23, .F. ) ;
#42 = CARTESIAN_POINT ( 'NONE',  ( 1.349815555280683623E-13, -4.934855052078584576E-15, 38.66025403784433223 ) ) ;
#43 = PLANE ( 'NONE',  #4 ) ;
#44 = SECURITY_CLASSIFICATION ( '', '', #90 ) ;
#45 = ADVANCED_FACE ( 'NONE', ( #21, #98 ), #61, .T. ) ;
#46 =( LENGTH_UNIT ( ) NAMED_UNIT ( * ) SI_UNIT ( .MILLI., .METRE. ) );
#47 = PERSON_AND_ORGANIZATION ( #81, #206 ) ;
#48 = FACE_OUTER_BOUND ( 'NONE', #209, .T. ) ;
#49 = CALENDAR_DATE ( 2021, 8, 12 ) ;
#50 = AXIS2_PLACEMENT_3D ( 'NONE', #166, #59, #2 ) ;
#51 = COORDINATED_UNIVERSAL_TIME_OFFSET ( 1, 0, .AHEAD. ) ;
#52 = ADVANCED_BREP_SHAPE_REPRESENTATION ( '372618', ( #36, #106, #203 ), #175 ) ;
#53 = PERSON_AND_ORGANIZATION ( #81, #206 ) ;
#54 = PRODUCT_DEFINITION_SHAPE ( 'NONE', 'NONE',  #126 ) ;
#55 = APPROVAL_PERSON_ORGANIZATION ( #32, #122, #190 ) ;
#56 = ORIENTED_EDGE ( 'NONE', *, *, #91, .F. ) ;
#57 = ORIENTED_EDGE ( 'NONE', *, *, #74, .F. ) ;
#58 = ADVANCED_FACE ( 'NONE', ( #207 ), #43, .F. ) ;
#59 = DIRECTION ( 'NONE',  ( -3.491481338843133355E-15, 1.276467311168695266E-16, -1.000000000000000000 ) ) ;
#60 = AXIS2_PLACEMENT_3D ( 'NONE', #200, #178, #22 ) ;
#61 = CYLINDRICAL_SURFACE ( 'NONE', #177, 3.999999999999996447 ) ;
#62 = FACE_BOUND ( 'NONE', #24, .T. ) ;
#63 = DIRECTION ( 'NONE',  ( 3.491481338843133355E-15, -1.276467311168695266E-16, 1.000000000000000000 ) ) ;
#64 = EDGE_LOOP ( 'NONE', ( #19 ) ) ;
#65 = FACE_BOUND ( 'NONE', #18, .T. ) ;
#66 = APPROVAL_DATE_TIME ( #155, #169 ) ;
#67 = COORDINATED_UNIVERSAL_TIME_OFFSET ( 1, 0, .AHEAD. ) ;
#68 = AXIS2_PLACEMENT_3D ( 'NONE', #215, #85, #83 ) ;
#69 = DATE_TIME_ROLE ( 'creation_date' ) ;
#70 = CIRCLE ( 'NONE', #148, 2.999999999999996447 ) ;
#71 = DIRECTION ( 'NONE',  ( 1.000000000000000000, 0.0000000000000000000, 0.0000000000000000000 ) ) ;
#72 = AXIS2_PLACEMENT_3D ( 'NONE', #211, #198, #134 ) ;
#73 = CARTESIAN_POINT ( 'NONE',  ( 2.793185071074506684E-13, -9.797174393178826052E-15, 80.00000000000000000 ) ) ;
#74 = EDGE_CURVE ( 'NONE', #212, #212, #120, .T. ) ;
#75 = DIRECTION ( 'NONE',  ( -3.491481338843133355E-15, 1.224646799147353207E-16, -1.000000000000000000 ) ) ;
#76 = FACE_OUTER_BOUND ( 'NONE', #176, .T. ) ;
#77 = CONICAL_SURFACE ( 'NONE', #154, 7.999999999999994671, 0.2617993877991501850 ) ;
#78 = DESIGN_CONTEXT ( 'detailed design', #6, 'design' ) ;
#79 = DIRECTION ( 'NONE',  ( 0.0000000000000000000, 1.000000000000000000, 0.0000000000000000000 ) ) ;
#80 = PLANE ( 'NONE',  #60 ) ;
#81 = PERSON ( 'UNSPECIFIED', 'UNSPECIFIED', 'UNSPECIFIED', ('UNSPECIFIED'), ('UNSPECIFIED'), ('UNSPECIFIED') ) ;
#82 = DIRECTION ( 'NONE',  ( -3.491481338843133355E-15, 1.224646799147353207E-16, -1.000000000000000000 ) ) ;
#83 = DIRECTION ( 'NONE',  ( 0.0000000000000000000, -1.000000000000000000, 0.0000000000000000000 ) ) ;
#84 = CARTESIAN_POINT ( 'NONE',  ( -6.413839710158237013E-31, 0.0000000000000000000, -1.836996703606440502E-16 ) ) ;
#85 = DIRECTION ( 'NONE',  ( 3.491481338843133355E-15, -1.276467311168695266E-16, 1.000000000000000000 ) ) ;
#86 = ADVANCED_FACE ( 'NONE', ( #152 ), #150, .F. ) ;
#87 = DATE_AND_TIME ( #49, #194 ) ;
#88 = APPROVAL_DATE_TIME ( #188, #34 ) ;
#89 = CIRCLE ( 'NONE', #219, 3.400000000000000799 ) ;
#90 = SECURITY_CLASSIFICATION_LEVEL ( 'unclassified' ) ;
#91 = EDGE_CURVE ( 'NONE', #27, #27, #221, .T. ) ;
#92 = EDGE_LOOP ( 'NONE', ( #146 ) ) ;
#93 = LOCAL_TIME ( 9, 40, 34.00000000000000000, #51 ) ;
#94 = ADVANCED_FACE ( 'NONE', ( #26, #171 ), #8, .T. ) ;
#95 = EDGE_LOOP ( 'NONE', ( #208 ) ) ;
#96 = DIRECTION ( 'NONE',  ( 3.491481338843133355E-15, -1.276467311168695266E-16, 1.000000000000000000 ) ) ;
#97 = CARTESIAN_POINT ( 'NONE',  ( 2.772236183041447758E-13, -9.723695585229984332E-15, 79.39999999999999147 ) ) ;
#98 = FACE_OUTER_BOUND ( 'NONE', #164, .T. ) ;
#99 = DIRECTION ( 'NONE',  ( 0.0000000000000000000, -1.000000000000000000, 0.0000000000000000000 ) ) ;
#100 = CC_DESIGN_DATE_AND_TIME_ASSIGNMENT ( #30, #69, ( #126 ) ) ;
#101 = EDGE_CURVE ( 'NONE', #201, #201, #70, .T. ) ;
#102 = UNCERTAINTY_MEASURE_WITH_UNIT (LENGTH_MEASURE( 1.000000000000000082E-05 ), #46, 'distance_accuracy_value', 'NONE');
#103 = AXIS2_PLACEMENT_3D ( 'NONE', #162, #111, #180 ) ;
#104 = PERSON_AND_ORGANIZATION ( #81, #206 ) ;
#105 = CC_DESIGN_APPROVAL ( #122, ( #126 ) ) ;
#106 = MANIFOLD_SOLID_BREP ( 'Corps-Déplacer/Copier1[2]', #205 ) ;
#107 = ADVANCED_FACE ( 'NONE', ( #195 ), #80, .F. ) ;
#108 = ORIENTED_EDGE ( 'NONE', *, *, #23, .T. ) ;
#109 = LOCAL_TIME ( 9, 40, 34.00000000000000000, #172 ) ;
#110 = APPLICATION_CONTEXT ( 'configuration controlled 3d designs of mechanical parts and assemblies' ) ;
#111 = DIRECTION ( 'NONE',  ( 3.491481338843133355E-15, -1.224646799147353207E-16, 1.000000000000000000 ) ) ;
#112 = CARTESIAN_POINT ( 'NONE',  ( -1.085582104150895230E-31, -2.999999999999996447, -3.109230721280588211E-17 ) ) ;
#113 = DIRECTION ( 'NONE',  ( 4.275831445896957731E-31, 1.000000000000000000, 1.224646799147353207E-16 ) ) ;
#114 = ORIENTED_EDGE ( 'NONE', *, *, #147, .F. ) ;
#115 =( NAMED_UNIT ( * ) PLANE_ANGLE_UNIT ( ) SI_UNIT ( $, .RADIAN. ) );
#116 = PRODUCT_DEFINITION_FORMATION_WITH_SPECIFIED_SOURCE ( 'ANY', '', #28, .NOT_KNOWN. ) ;
#117 = CALENDAR_DATE ( 2021, 8, 12 ) ;
#118 = CC_DESIGN_PERSON_AND_ORGANIZATION_ASSIGNMENT ( #127, #141, ( #28 ) ) ;
#119 = COORDINATED_UNIVERSAL_TIME_OFFSET ( 1, 0, .AHEAD. ) ;
#120 = CIRCLE ( 'NONE', #163, 4.000000000000000000 ) ;
#121 = CALENDAR_DATE ( 2021, 8, 12 ) ;
#122 = APPROVAL ( #14, 'UNSPECIFIED' ) ;
#123 = PERSON_AND_ORGANIZATION_ROLE ( 'design_supplier' ) ;
#124 = APPROVAL_STATUS ( 'not_yet_approved' ) ;
#125 = APPROVAL_PERSON_ORGANIZATION ( #47, #169, #213 ) ;
#126 = PRODUCT_DEFINITION ( 'UNKNOWN', '', #116, #78 ) ;
#127 = PERSON_AND_ORGANIZATION ( #81, #206 ) ;
#128 = CC_DESIGN_PERSON_AND_ORGANIZATION_ASSIGNMENT ( #10, #139, ( #116 ) ) ;
#129 = EDGE_LOOP ( 'NONE', ( #114 ) ) ;
#130 = EDGE_LOOP ( 'NONE', ( #25 ) ) ;
#131 = CARTESIAN_POINT ( 'NONE',  ( 8.286001252710381625E-14, -3.999999999999999112, 23.73205080756887142 ) ) ;
#132 = DIRECTION ( 'NONE',  ( 4.275831445896958607E-31, 1.000000000000000000, 1.224646799147353207E-16 ) ) ;
#133 = VERTEX_POINT ( 'NONE', #131 ) ;
#134 = DIRECTION ( 'NONE',  ( -4.275831445896958607E-31, -1.000000000000000000, -1.224646799147353207E-16 ) ) ;
#135 = VERTEX_POINT ( 'NONE', #197 ) ;
#136 = AXIS2_PLACEMENT_3D ( 'NONE', #84, #63, #5 ) ;
#137 = SHAPE_DEFINITION_REPRESENTATION ( #54, #52 ) ;
#138 = CIRCLE ( 'NONE', #50, 3.999999999999996447 ) ;
#139 = PERSON_AND_ORGANIZATION_ROLE ( 'creator' ) ;
#140 = CC_DESIGN_APPROVAL ( #169, ( #44 ) ) ;
#141 = PERSON_AND_ORGANIZATION_ROLE ( 'design_owner' ) ;
#142 = CC_DESIGN_APPROVAL ( #34, ( #116 ) ) ;
#143 = MECHANICAL_CONTEXT ( 'NONE', #110, 'mechanical' ) ;
#144 = DIRECTION ( 'NONE',  ( -3.491481338843133355E-15, 1.224646799147353207E-16, -1.000000000000000000 ) ) ;
#145 = DIRECTION ( 'NONE',  ( 3.491481338843133355E-15, -1.276467311168695266E-16, 1.000000000000000000 ) ) ;
#146 = ORIENTED_EDGE ( 'NONE', *, *, #101, .F. ) ;
#147 = EDGE_CURVE ( 'NONE', #184, #184, #189, .T. ) ;
#148 = AXIS2_PLACEMENT_3D ( 'NONE', #181, #96, #149 ) ;
#149 = DIRECTION ( 'NONE',  ( -4.456761796588770537E-31, -1.000000000000000000, -1.276467311168695512E-16 ) ) ;
#150 = PLANE ( 'NONE',  #72 ) ;
#151 = CARTESIAN_POINT ( 'NONE',  ( 6.982962677686266711E-14, -2.999999999999998224, 20.00000000000000000 ) ) ;
#152 = FACE_OUTER_BOUND ( 'NONE', #92, .T. ) ;
#153 = DIRECTION ( 'NONE',  ( 0.0000000000000000000, 1.000000000000000000, 0.0000000000000000000 ) ) ;
#154 = AXIS2_PLACEMENT_3D ( 'NONE', #42, #145, #210 ) ;
#155 = DATE_AND_TIME ( #117, #9 ) ;
#156 = DATE_AND_TIME ( #173, #214 ) ;
#157 = PERSON_AND_ORGANIZATION_ROLE ( 'creator' ) ;
#158 = AXIS2_PLACEMENT_3D ( 'NONE', #222, #185, #99 ) ;
#159 = PERSON_AND_ORGANIZATION ( #81, #206 ) ;
#160 = APPLICATION_PROTOCOL_DEFINITION ( 'international standard', 'config_control_design', 1994, #110 ) ;
#161 = EDGE_CURVE ( 'NONE', #133, #133, #138, .T. ) ;
#162 = CARTESIAN_POINT ( 'NONE',  ( 6.982962677686266711E-14, 2.999519565323706458E-32, 20.00000000000000000 ) ) ;
#163 = AXIS2_PLACEMENT_3D ( 'NONE', #97, #82, #79 ) ;
#164 = EDGE_LOOP ( 'NONE', ( #167 ) ) ;
#165 = FACE_OUTER_BOUND ( 'NONE', #64, .T. ) ;
#166 = CARTESIAN_POINT ( 'NONE',  ( 8.286001252710381625E-14, -3.029318708285629656E-15, 23.73205080756887142 ) ) ;
#167 = ORIENTED_EDGE ( 'NONE', *, *, #161, .F. ) ;
#168 = DIRECTION ( 'NONE',  ( -3.491481338843133355E-15, 1.224646799147353207E-16, -1.000000000000000000 ) ) ;
#169 = APPROVAL ( #186, 'UNSPECIFIED' ) ;
#170 = CARTESIAN_POINT ( 'NONE',  ( 2.793185071074506684E-13, -9.797174393178826052E-15, 80.00000000000000000 ) ) ;
#171 = FACE_OUTER_BOUND ( 'NONE', #193, .T. ) ;
#172 = COORDINATED_UNIVERSAL_TIME_OFFSET ( 1, 0, .AHEAD. ) ;
#173 = CALENDAR_DATE ( 2021, 8, 12 ) ;
#174 = APPLICATION_PROTOCOL_DEFINITION ( 'international standard', 'config_control_design', 1994, #6 ) ;
#175 =( GEOMETRIC_REPRESENTATION_CONTEXT ( 3 ) GLOBAL_UNCERTAINTY_ASSIGNED_CONTEXT ( ( #102 ) ) GLOBAL_UNIT_ASSIGNED_CONTEXT ( ( #46, #115, #7 ) ) REPRESENTATION_CONTEXT ( 'NONE', 'WORKASPACE' ) );
#176 = EDGE_LOOP ( 'NONE', ( #223 ) ) ;
#177 = AXIS2_PLACEMENT_3D ( 'NONE', #196, #1, #113 ) ;
#178 = DIRECTION ( 'NONE',  ( 3.491481338843133355E-15, -1.224646799147353207E-16, 1.000000000000000000 ) ) ;
#179 = CC_DESIGN_DATE_AND_TIME_ASSIGNMENT ( #156, #217, ( #44 ) ) ;
#180 = DIRECTION ( 'NONE',  ( -4.275831445896958607E-31, -1.000000000000000000, -1.224646799147353207E-16 ) ) ;
#181 = CARTESIAN_POINT ( 'NONE',  ( 1.228470328561540237E-30, -6.836089494465367087E-32, 3.518478861378022600E-16 ) ) ;
#182 = CARTESIAN_POINT ( 'NONE',  ( 2.793185071074506684E-13, 2.549591630525143701E-32, 80.00000000000000000 ) ) ;
#183 = ADVANCED_FACE ( 'NONE', ( #65, #76 ), #77, .T. ) ;
#184 = VERTEX_POINT ( 'NONE', #20 ) ;
#185 = DIRECTION ( 'NONE',  ( 3.491481338843133355E-15, -1.276467311168695266E-16, 1.000000000000000000 ) ) ;
#186 = APPROVAL_STATUS ( 'not_yet_approved' ) ;
#187 = CONICAL_SURFACE ( 'NONE', #199, 3.400000000000000799, 0.7853981633974450594 ) ;
#188 = DATE_AND_TIME ( #121, #93 ) ;
#189 = CIRCLE ( 'NONE', #68, 2.999999999999995559 ) ;
#190 = APPROVAL_ROLE ( '' ) ;
#191 = ORIENTED_EDGE ( 'NONE', *, *, #147, .T. ) ;
#192 = ADVANCED_FACE ( 'NONE', ( #48, #62 ), #187, .T. ) ;
#193 = EDGE_LOOP ( 'NONE', ( #56 ) ) ;
#194 = LOCAL_TIME ( 9, 40, 34.00000000000000000, #15 ) ;
#195 = FACE_OUTER_BOUND ( 'NONE', #129, .T. ) ;
#196 = CARTESIAN_POINT ( 'NONE',  ( 0.0000000000000000000, 0.0000000000000000000, 0.0000000000000000000 ) ) ;
#197 = CARTESIAN_POINT ( 'NONE',  ( 2.793185071074506684E-13, 3.399999999999990585, 80.00000000000000000 ) ) ;
#198 = DIRECTION ( 'NONE',  ( 3.491481338843133355E-15, -1.224646799147353207E-16, 1.000000000000000000 ) ) ;
#199 = AXIS2_PLACEMENT_3D ( 'NONE', #170, #75, #153 ) ;
#200 = CARTESIAN_POINT ( 'NONE',  ( 6.982962677686266711E-14, 2.999519565323706458E-32, 20.00000000000000000 ) ) ;
#201 = VERTEX_POINT ( 'NONE', #112 ) ;
#202 = APPROVAL_ROLE ( '' ) ;
#203 = AXIS2_PLACEMENT_3D ( 'NONE', #13, #16, #71 ) ;
#204 = CALENDAR_DATE ( 2021, 8, 12 ) ;
#205 = CLOSED_SHELL ( 'NONE', ( #31, #94, #86 ) ) ;
#206 = ORGANIZATION ( 'UNSPECIFIED', 'UNSPECIFIED', '' ) ;
#207 = FACE_OUTER_BOUND ( 'NONE', #3, .T. ) ;
#208 = ORIENTED_EDGE ( 'NONE', *, *, #101, .T. ) ;
#209 = EDGE_LOOP ( 'NONE', ( #57 ) ) ;
#210 = DIRECTION ( 'NONE',  ( 0.0000000000000000000, -1.000000000000000000, 0.0000000000000000000 ) ) ;
#211 = CARTESIAN_POINT ( 'NONE',  ( -6.413786353521998128E-31, 2.249653418127172114E-32, -1.836981421658447292E-16 ) ) ;
#212 = VERTEX_POINT ( 'NONE', #39 ) ;
#213 = APPROVAL_ROLE ( '' ) ;
#214 = LOCAL_TIME ( 9, 40, 34.00000000000000000, #119 ) ;
#215 = CARTESIAN_POINT ( 'NONE',  ( 6.982962677686266711E-14, -2.552934622337390728E-15, 20.00000000000000000 ) ) ;
#216 = CC_DESIGN_PERSON_AND_ORGANIZATION_ASSIGNMENT ( #159, #29, ( #44 ) ) ;
#217 = DATE_TIME_ROLE ( 'classification_date' ) ;
#218 = PERSON_AND_ORGANIZATION ( #81, #206 ) ;
#219 = AXIS2_PLACEMENT_3D ( 'NONE', #73, #144, #35 ) ;
#220 = CC_DESIGN_PERSON_AND_ORGANIZATION_ASSIGNMENT ( #53, #123, ( #116 ) ) ;
#221 = CIRCLE ( 'NONE', #158, 2.999999999999995559 ) ;
#222 = CARTESIAN_POINT ( 'NONE',  ( 6.982962677686266711E-14, -2.552934622337390728E-15, 20.00000000000000000 ) ) ;
#223 = ORIENTED_EDGE ( 'NONE', *, *, #161, .T. ) ;
ENDSEC;
END-ISO-10303-21;
