ISO-10303-21;
HEADER;
FILE_DESCRIPTION (( 'STEP AP203' ),
    '1' );
FILE_NAME ('372617.step',
    '2021-12-08T08:40:34',
    ( '' ),
    ( '' ),
    'SwSTEP 2.0',
    'SolidWorks 2019',
    '' );
FILE_SCHEMA (( 'CONFIG_CONTROL_DESIGN' ));
ENDSEC;

DATA;
#1 = CYLINDRICAL_SURFACE ( 'NONE', #85, 2.999999999999998224 ) ;
#2 = CARTESIAN_POINT ( 'NONE',  ( -1.710332656378656636E-30, 5.999039404304306745E-32, -4.898587420047210426E-16 ) ) ;
#3 = AXIS2_PLACEMENT_3D ( 'NONE', #102, #138, #88 ) ;
#4 = DATE_AND_TIME ( #154, #125 ) ;
#5 = DIRECTION ( 'NONE',  ( 0.0000000000000000000, 1.000000000000000000, 0.0000000000000000000 ) ) ;
#6 = EDGE_LOOP ( 'NONE', ( #11 ) ) ;
#7 = VERTEX_POINT ( 'NONE', #76 ) ;
#8 = EDGE_LOOP ( 'NONE', ( #185 ) ) ;
#9 = DIRECTION ( 'NONE',  ( 0.0000000000000000000, 0.0000000000000000000, 1.000000000000000000 ) ) ;
#10 = EDGE_LOOP ( 'NONE', ( #129 ) ) ;
#11 = ORIENTED_EDGE ( 'NONE', *, *, #51, .T. ) ;
#12 = CIRCLE ( 'NONE', #133, 2.400000000000001688 ) ;
#13 =( NAMED_UNIT ( * ) PLANE_ANGLE_UNIT ( ) SI_UNIT ( $, .RADIAN. ) );
#14 = CALENDAR_DATE ( 2021, 8, 12 ) ;
#15 = ORGANIZATION ( 'UNSPECIFIED', 'UNSPECIFIED', '' ) ;
#16 = CARTESIAN_POINT ( 'NONE',  ( -8.551663281893283178E-31, 2.999519702152153373E-32, -2.449293710023605213E-16 ) ) ;
#17 = DESIGN_CONTEXT ( 'detailed design', #142, 'design' ) ;
#18 = APPROVAL_PERSON_ORGANIZATION ( #28, #46, #113 ) ;
#19 = FACE_BOUND ( 'NONE', #173, .T. ) ;
#20 = FACE_OUTER_BOUND ( 'NONE', #10, .T. ) ;
#21 = ADVANCED_FACE ( 'NONE', ( #126 ), #43, .F. ) ;
#22 = APPROVAL_STATUS ( 'not_yet_approved' ) ;
#23 = CARTESIAN_POINT ( 'NONE',  ( 1.326762908760390423E-13, 2.999999999999991118, 38.00000000000000000 ) ) ;
#24 = EDGE_LOOP ( 'NONE', ( #141 ) ) ;
#25 = CC_DESIGN_SECURITY_CLASSIFICATION ( #64, ( #128 ) ) ;
#26 = DATE_AND_TIME ( #203, #116 ) ;
#27 = FACE_OUTER_BOUND ( 'NONE', #8, .T. ) ;
#28 = PERSON_AND_ORGANIZATION ( #153, #15 ) ;
#29 = APPROVAL_DATE_TIME ( #62, #46 ) ;
#30 = CC_DESIGN_APPROVAL ( #195, ( #179 ) ) ;
#31 = CLOSED_SHELL ( 'NONE', ( #21, #131, #65, #86 ) ) ;
#32 = CC_DESIGN_PERSON_AND_ORGANIZATION_ASSIGNMENT ( #80, #117, ( #57 ) ) ;
#33 = PLANE ( 'NONE',  #100 ) ;
#34 = DIRECTION ( 'NONE',  ( -3.491481338843133355E-15, 1.224646799147353207E-16, -1.000000000000000000 ) ) ;
#35 = APPROVAL_PERSON_ORGANIZATION ( #152, #195, #200 ) ;
#36 = CARTESIAN_POINT ( 'NONE',  ( 2.772236183041447758E-13, -9.723695585229984332E-15, 79.39999999999999147 ) ) ;
#37 = FACE_OUTER_BOUND ( 'NONE', #58, .T. ) ;
#38 = SHAPE_DEFINITION_REPRESENTATION ( #114, #93 ) ;
#39 = APPLICATION_CONTEXT ( 'configuration controlled 3d designs of mechanical parts and assemblies' ) ;
#40 = PERSON_AND_ORGANIZATION ( #153, #15 ) ;
#41 = CARTESIAN_POINT ( 'NONE',  ( 1.326762908760390423E-13, 2.249639673992776285E-32, 38.00000000000000000 ) ) ;
#42 = CYLINDRICAL_SURFACE ( 'NONE', #94, 2.999999999999993339 ) ;
#43 = PLANE ( 'NONE',  #79 ) ;
#44 = CC_DESIGN_APPROVAL ( #46, ( #128 ) ) ;
#45 = ORIENTED_EDGE ( 'NONE', *, *, #90, .F. ) ;
#46 = APPROVAL ( #92, 'UNSPECIFIED' ) ;
#47 = DIRECTION ( 'NONE',  ( -4.275831445896958607E-31, -1.000000000000000000, -1.224646799147353207E-16 ) ) ;
#48 = ADVANCED_FACE ( 'NONE', ( #136 ), #193, .F. ) ;
#49 = DIRECTION ( 'NONE',  ( -3.491481338843133355E-15, 1.224646799147353207E-16, -1.000000000000000000 ) ) ;
#50 = DATE_AND_TIME ( #14, #82 ) ;
#51 = EDGE_CURVE ( 'NONE', #107, #107, #170, .T. ) ;
#52 = CARTESIAN_POINT ( 'NONE',  ( 1.326762908760390423E-13, -4.653657836759941941E-15, 38.00000000000000000 ) ) ;
#53 = EDGE_LOOP ( 'NONE', ( #91 ) ) ;
#54 = VERTEX_POINT ( 'NONE', #115 ) ;
#55 = APPLICATION_PROTOCOL_DEFINITION ( 'international standard', 'config_control_design', 1994, #39 ) ;
#56 = DATE_TIME_ROLE ( 'classification_date' ) ;
#57 = PRODUCT ( '372617', '372617', '', ( #81 ) ) ;
#58 = EDGE_LOOP ( 'NONE', ( #45 ) ) ;
#59 = LOCAL_TIME ( 9, 40, 34.00000000000000000, #192 ) ;
#60 = CARTESIAN_POINT ( 'NONE',  ( 0.0000000000000000000, 0.0000000000000000000, 0.0000000000000000000 ) ) ;
#61 = EDGE_CURVE ( 'NONE', #7, #7, #137, .T. ) ;
#62 = DATE_AND_TIME ( #175, #59 ) ;
#63 = PERSON_AND_ORGANIZATION ( #153, #15 ) ;
#64 = SECURITY_CLASSIFICATION ( '', '', #127 ) ;
#65 = ADVANCED_FACE ( 'NONE', ( #20, #19 ), #176, .T. ) ;
#66 = COORDINATED_UNIVERSAL_TIME_OFFSET ( 1, 0, .AHEAD. ) ;
#67 = CARTESIAN_POINT ( 'NONE',  ( 0.0000000000000000000, 0.0000000000000000000, 0.0000000000000000000 ) ) ;
#68 = CC_DESIGN_PERSON_AND_ORGANIZATION_ASSIGNMENT ( #63, #156, ( #128 ) ) ;
#69 = DIRECTION ( 'NONE',  ( -3.491481338843133355E-15, 1.224646799147353207E-16, -1.000000000000000000 ) ) ;
#70 = CARTESIAN_POINT ( 'NONE',  ( 1.326762908760390423E-13, -4.653657836759941941E-15, 38.00000000000000000 ) ) ;
#71 = DIRECTION ( 'NONE',  ( -4.275831445896958607E-31, -1.000000000000000000, -1.224646799147353207E-16 ) ) ;
#72 = COORDINATED_UNIVERSAL_TIME_OFFSET ( 1, 0, .AHEAD. ) ;
#73 = EDGE_CURVE ( 'NONE', #144, #144, #177, .T. ) ;
#74 = APPROVAL_DATE_TIME ( #4, #195 ) ;
#75 = EDGE_LOOP ( 'NONE', ( #157 ) ) ;
#76 = CARTESIAN_POINT ( 'NONE',  ( 2.772236183041447758E-13, 2.999999999999991562, 79.39999999999999147 ) ) ;
#77 = CLOSED_SHELL ( 'NONE', ( #48, #146, #112 ) ) ;
#78 = COORDINATED_UNIVERSAL_TIME_OFFSET ( 1, 0, .AHEAD. ) ;
#79 = AXIS2_PLACEMENT_3D ( 'NONE', #41, #110, #71 ) ;
#80 = PERSON_AND_ORGANIZATION ( #153, #15 ) ;
#81 = MECHANICAL_CONTEXT ( 'NONE', #39, 'mechanical' ) ;
#82 = LOCAL_TIME ( 9, 40, 34.00000000000000000, #66 ) ;
#83 = CARTESIAN_POINT ( 'NONE',  ( 2.793185071074506684E-13, -9.797174393178826052E-15, 80.00000000000000000 ) ) ;
#84 = PERSON_AND_ORGANIZATION_ROLE ( 'creator' ) ;
#85 = AXIS2_PLACEMENT_3D ( 'NONE', #67, #134, #150 ) ;
#86 = ADVANCED_FACE ( 'NONE', ( #37 ), #101, .F. ) ;
#87 = LOCAL_TIME ( 9, 40, 34.00000000000000000, #72 ) ;
#88 = DIRECTION ( 'NONE',  ( 4.275831445896958607E-31, 1.000000000000000000, 1.224646799147353207E-16 ) ) ;
#89 = ORIENTED_EDGE ( 'NONE', *, *, #73, .T. ) ;
#90 = EDGE_CURVE ( 'NONE', #54, #54, #12, .T. ) ;
#91 = ORIENTED_EDGE ( 'NONE', *, *, #51, .F. ) ;
#92 = APPROVAL_STATUS ( 'not_yet_approved' ) ;
#93 = ADVANCED_BREP_SHAPE_REPRESENTATION ( '372617', ( #162, #160, #149 ), #163 ) ;
#94 = AXIS2_PLACEMENT_3D ( 'NONE', #169, #186, #106 ) ;
#95 = PERSON_AND_ORGANIZATION ( #153, #15 ) ;
#96 =( NAMED_UNIT ( * ) SI_UNIT ( $, .STERADIAN. ) SOLID_ANGLE_UNIT ( ) );
#97 = CARTESIAN_POINT ( 'NONE',  ( 1.326762908760390423E-13, 2.249639673992776285E-32, 38.00000000000000000 ) ) ;
#98 = CARTESIAN_POINT ( 'NONE',  ( 1.326762908760390423E-13, 2.999999999999991118, 38.00000000000000000 ) ) ;
#99 = CARTESIAN_POINT ( 'NONE',  ( 2.793185071074506684E-13, -9.797174393178826052E-15, 80.00000000000000000 ) ) ;
#100 = AXIS2_PLACEMENT_3D ( 'NONE', #97, #164, #196 ) ;
#101 = PLANE ( 'NONE',  #3 ) ;
#102 = CARTESIAN_POINT ( 'NONE',  ( 2.793185071074506684E-13, 1.799711739194215445E-32, 80.00000000000000000 ) ) ;
#103 = COORDINATED_UNIVERSAL_TIME_OFFSET ( 1, 0, .AHEAD. ) ;
#104 = DIRECTION ( 'NONE',  ( 3.491481338843133355E-15, -1.224646799147353207E-16, 1.000000000000000000 ) ) ;
#105 = APPROVAL_ROLE ( '' ) ;
#106 = DIRECTION ( 'NONE',  ( 4.275831445896958607E-31, 1.000000000000000000, 1.224646799147352961E-16 ) ) ;
#107 = VERTEX_POINT ( 'NONE', #23 ) ;
#108 = ORIENTED_EDGE ( 'NONE', *, *, #90, .T. ) ;
#109 = PRODUCT_RELATED_PRODUCT_CATEGORY ( 'detail', '', ( #57 ) ) ;
#110 = DIRECTION ( 'NONE',  ( 3.491481338843133355E-15, -1.224646799147353207E-16, 1.000000000000000000 ) ) ;
#111 = DIRECTION ( 'NONE',  ( -3.491481338843133355E-15, 1.224646799147353207E-16, -1.000000000000000000 ) ) ;
#112 = ADVANCED_FACE ( 'NONE', ( #120 ), #33, .T. ) ;
#113 = APPROVAL_ROLE ( '' ) ;
#114 = PRODUCT_DEFINITION_SHAPE ( 'NONE', 'NONE',  #179 ) ;
#115 = CARTESIAN_POINT ( 'NONE',  ( 2.793185071074506684E-13, 2.399999999999991473, 80.00000000000000000 ) ) ;
#116 = LOCAL_TIME ( 9, 40, 34.00000000000000000, #78 ) ;
#117 = PERSON_AND_ORGANIZATION_ROLE ( 'design_owner' ) ;
#118 = CC_DESIGN_PERSON_AND_ORGANIZATION_ASSIGNMENT ( #95, #84, ( #128 ) ) ;
#119 = PERSON_AND_ORGANIZATION_ROLE ( 'classification_officer' ) ;
#120 = FACE_OUTER_BOUND ( 'NONE', #75, .T. ) ;
#121 = DIRECTION ( 'NONE',  ( 0.0000000000000000000, 1.000000000000000000, 0.0000000000000000000 ) ) ;
#122 = EDGE_LOOP ( 'NONE', ( #89 ) ) ;
#123 = APPROVAL_STATUS ( 'not_yet_approved' ) ;
#124 = PERSON_AND_ORGANIZATION ( #153, #15 ) ;
#125 = LOCAL_TIME ( 9, 40, 34.00000000000000000, #103 ) ;
#126 = FACE_OUTER_BOUND ( 'NONE', #6, .T. ) ;
#127 = SECURITY_CLASSIFICATION_LEVEL ( 'unclassified' ) ;
#128 = PRODUCT_DEFINITION_FORMATION_WITH_SPECIFIED_SOURCE ( 'ANY', '', #57, .NOT_KNOWN. ) ;
#129 = ORIENTED_EDGE ( 'NONE', *, *, #61, .F. ) ;
#130 = DIRECTION ( 'NONE',  ( 1.000000000000000000, 0.0000000000000000000, 0.0000000000000000000 ) ) ;
#131 = ADVANCED_FACE ( 'NONE', ( #165, #148 ), #1, .T. ) ;
#132 = CIRCLE ( 'NONE', #187, 2.999999999999995559 ) ;
#133 = AXIS2_PLACEMENT_3D ( 'NONE', #99, #69, #155 ) ;
#134 = DIRECTION ( 'NONE',  ( -3.491481338843133355E-15, 1.224646799147353207E-16, -1.000000000000000000 ) ) ;
#135 = FACE_OUTER_BOUND ( 'NONE', #24, .T. ) ;
#136 = FACE_OUTER_BOUND ( 'NONE', #122, .T. ) ;
#137 = CIRCLE ( 'NONE', #172, 3.000000000000000888 ) ;
#138 = DIRECTION ( 'NONE',  ( -3.491481338843133355E-15, 1.224646799147353207E-16, -1.000000000000000000 ) ) ;
#139 = CC_DESIGN_DATE_AND_TIME_ASSIGNMENT ( #50, #56, ( #64 ) ) ;
#140 = CALENDAR_DATE ( 2021, 8, 12 ) ;
#141 = ORIENTED_EDGE ( 'NONE', *, *, #73, .F. ) ;
#142 = APPLICATION_CONTEXT ( 'configuration controlled 3d designs of mechanical parts and assemblies' ) ;
#143 = AXIS2_PLACEMENT_3D ( 'NONE', #16, #104, #47 ) ;
#144 = VERTEX_POINT ( 'NONE', #202 ) ;
#145 = ORIENTED_EDGE ( 'NONE', *, *, #61, .T. ) ;
#146 = ADVANCED_FACE ( 'NONE', ( #135, #27 ), #42, .T. ) ;
#147 = APPLICATION_PROTOCOL_DEFINITION ( 'international standard', 'config_control_design', 1994, #142 ) ;
#148 = FACE_OUTER_BOUND ( 'NONE', #191, .T. ) ;
#149 = AXIS2_PLACEMENT_3D ( 'NONE', #60, #9, #130 ) ;
#150 = DIRECTION ( 'NONE',  ( 4.275831445896958607E-31, 1.000000000000000000, 1.224646799147353454E-16 ) ) ;
#151 = VERTEX_POINT ( 'NONE', #98 ) ;
#152 = PERSON_AND_ORGANIZATION ( #153, #15 ) ;
#153 = PERSON ( 'UNSPECIFIED', 'UNSPECIFIED', 'UNSPECIFIED', ('UNSPECIFIED'), ('UNSPECIFIED'), ('UNSPECIFIED') ) ;
#154 = CALENDAR_DATE ( 2021, 8, 12 ) ;
#155 = DIRECTION ( 'NONE',  ( 0.0000000000000000000, 1.000000000000000000, 0.0000000000000000000 ) ) ;
#156 = PERSON_AND_ORGANIZATION_ROLE ( 'design_supplier' ) ;
#157 = ORIENTED_EDGE ( 'NONE', *, *, #199, .F. ) ;
#158 = AXIS2_PLACEMENT_3D ( 'NONE', #2, #34, #183 ) ;
#159 = CC_DESIGN_PERSON_AND_ORGANIZATION_ASSIGNMENT ( #168, #119, ( #64 ) ) ;
#160 = MANIFOLD_SOLID_BREP ( 'Corps-Déplacer/Copier1[2]', #77 ) ;
#161 = APPROVAL ( #123, 'UNSPECIFIED' ) ;
#162 = MANIFOLD_SOLID_BREP ( 'Corps-Déplacer/Copier1[1]', #31 ) ;
#163 =( GEOMETRIC_REPRESENTATION_CONTEXT ( 3 ) GLOBAL_UNCERTAINTY_ASSIGNED_CONTEXT ( ( #178 ) ) GLOBAL_UNIT_ASSIGNED_CONTEXT ( ( #180, #13, #96 ) ) REPRESENTATION_CONTEXT ( 'NONE', 'WORKASPACE' ) );
#164 = DIRECTION ( 'NONE',  ( 3.491481338843133355E-15, -1.224646799147353207E-16, 1.000000000000000000 ) ) ;
#165 = FACE_OUTER_BOUND ( 'NONE', #53, .T. ) ;
#166 = CC_DESIGN_DATE_AND_TIME_ASSIGNMENT ( #26, #174, ( #179 ) ) ;
#167 = DIRECTION ( 'NONE',  ( -3.491481338843133355E-15, 1.224646799147353207E-16, -1.000000000000000000 ) ) ;
#168 = PERSON_AND_ORGANIZATION ( #153, #15 ) ;
#169 = CARTESIAN_POINT ( 'NONE',  ( 0.0000000000000000000, 0.0000000000000000000, 0.0000000000000000000 ) ) ;
#170 = CIRCLE ( 'NONE', #194, 2.999999999999995559 ) ;
#171 = DIRECTION ( 'NONE',  ( 0.0000000000000000000, 1.000000000000000000, 0.0000000000000000000 ) ) ;
#172 = AXIS2_PLACEMENT_3D ( 'NONE', #36, #197, #5 ) ;
#173 = EDGE_LOOP ( 'NONE', ( #108 ) ) ;
#174 = DATE_TIME_ROLE ( 'creation_date' ) ;
#175 = CALENDAR_DATE ( 2021, 8, 12 ) ;
#176 = CONICAL_SURFACE ( 'NONE', #190, 2.400000000000001688, 0.7853981633974450594 ) ;
#177 = CIRCLE ( 'NONE', #158, 2.999999999999990674 ) ;
#178 = UNCERTAINTY_MEASURE_WITH_UNIT (LENGTH_MEASURE( 1.000000000000000082E-05 ), #180, 'distance_accuracy_value', 'NONE');
#179 = PRODUCT_DEFINITION ( 'UNKNOWN', '', #128, #17 ) ;
#180 =( LENGTH_UNIT ( ) NAMED_UNIT ( * ) SI_UNIT ( .MILLI., .METRE. ) );
#181 = DIRECTION ( 'NONE',  ( 0.0000000000000000000, 1.000000000000000000, 0.0000000000000000000 ) ) ;
#182 = CC_DESIGN_APPROVAL ( #161, ( #64 ) ) ;
#183 = DIRECTION ( 'NONE',  ( 4.275831445896958607E-31, 1.000000000000000000, 1.224646799147353207E-16 ) ) ;
#184 = DATE_AND_TIME ( #140, #87 ) ;
#185 = ORIENTED_EDGE ( 'NONE', *, *, #199, .T. ) ;
#186 = DIRECTION ( 'NONE',  ( -3.491481338843133355E-15, 1.224646799147353207E-16, -1.000000000000000000 ) ) ;
#187 = AXIS2_PLACEMENT_3D ( 'NONE', #52, #111, #171 ) ;
#188 = CC_DESIGN_PERSON_AND_ORGANIZATION_ASSIGNMENT ( #124, #189, ( #179 ) ) ;
#189 = PERSON_AND_ORGANIZATION_ROLE ( 'creator' ) ;
#190 = AXIS2_PLACEMENT_3D ( 'NONE', #83, #49, #181 ) ;
#191 = EDGE_LOOP ( 'NONE', ( #145 ) ) ;
#192 = COORDINATED_UNIVERSAL_TIME_OFFSET ( 1, 0, .AHEAD. ) ;
#193 = PLANE ( 'NONE',  #143 ) ;
#194 = AXIS2_PLACEMENT_3D ( 'NONE', #70, #167, #121 ) ;
#195 = APPROVAL ( #22, 'UNSPECIFIED' ) ;
#196 = DIRECTION ( 'NONE',  ( -4.275831445896958607E-31, -1.000000000000000000, -1.224646799147353207E-16 ) ) ;
#197 = DIRECTION ( 'NONE',  ( -3.491481338843133355E-15, 1.224646799147353207E-16, -1.000000000000000000 ) ) ;
#198 = APPROVAL_PERSON_ORGANIZATION ( #40, #161, #105 ) ;
#199 = EDGE_CURVE ( 'NONE', #151, #151, #132, .T. ) ;
#200 = APPROVAL_ROLE ( '' ) ;
#201 = APPROVAL_DATE_TIME ( #184, #161 ) ;
#202 = CARTESIAN_POINT ( 'NONE',  ( -4.275832226095729073E-31, 2.999999999999990674, -1.224647022605161898E-16 ) ) ;
#203 = CALENDAR_DATE ( 2021, 8, 12 ) ;
ENDSEC;
END-ISO-10303-21;
