ISO-10303-21;
HEADER;
FILE_DESCRIPTION (( 'STEP AP203' ),
    '1' );
FILE_NAME ('372616.step',
    '2021-12-08T08:40:33',
    ( '' ),
    ( '' ),
    'SwSTEP 2.0',
    'SolidWorks 2019',
    '' );
FILE_SCHEMA (( 'CONFIG_CONTROL_DESIGN' ));
ENDSEC;

DATA;
#1 = COORDINATED_UNIVERSAL_TIME_OFFSET ( 1, 0, .AHEAD. ) ;
#2 = APPLICATION_CONTEXT ( 'configuration controlled 3d designs of mechanical parts and assemblies' ) ;
#3 = FACE_BOUND ( 'NONE', #107, .T. ) ;
#4 = DATE_AND_TIME ( #78, #73 ) ;
#5 =( GEOMETRIC_REPRESENTATION_CONTEXT ( 3 ) GLOBAL_UNCERTAINTY_ASSIGNED_CONTEXT ( ( #172 ) ) GLOBAL_UNIT_ASSIGNED_CONTEXT ( ( #121, #178, #26 ) ) REPRESENTATION_CONTEXT ( 'NONE', 'WORKASPACE' ) );
#6 = ORIENTED_EDGE ( 'NONE', *, *, #80, .T. ) ;
#7 = PERSON_AND_ORGANIZATION ( #118, #22 ) ;
#8 = DIRECTION ( 'NONE',  ( 4.275831445896958607E-31, 1.000000000000000000, 1.224646799147353207E-16 ) ) ;
#9 = ADVANCED_FACE ( 'NONE', ( #23 ), #197, .F. ) ;
#10 = APPROVAL_PERSON_ORGANIZATION ( #166, #103, #201 ) ;
#11 = APPROVAL_STATUS ( 'not_yet_approved' ) ;
#12 = ADVANCED_FACE ( 'NONE', ( #153 ), #60, .F. ) ;
#13 = CIRCLE ( 'NONE', #58, 3.000000000000001332 ) ;
#14 = APPROVAL_ROLE ( '' ) ;
#15 = PERSON_AND_ORGANIZATION_ROLE ( 'design_owner' ) ;
#16 = AXIS2_PLACEMENT_3D ( 'NONE', #114, #160, #128 ) ;
#17 = VERTEX_POINT ( 'NONE', #145 ) ;
#18 = CARTESIAN_POINT ( 'NONE',  ( 1.047444401652940007E-13, 2.999999999999991562, 30.00000000000000000 ) ) ;
#19 = MANIFOLD_SOLID_BREP ( 'Corps-Déplacer/Copier1[2]', #168 ) ;
#20 = ORIENTED_EDGE ( 'NONE', *, *, #82, .T. ) ;
#21 = CARTESIAN_POINT ( 'NONE',  ( -4.275716455284538985E-31, 2.999999999999990674, -1.224613864526984692E-16 ) ) ;
#22 = ORGANIZATION ( 'UNSPECIFIED', 'UNSPECIFIED', '' ) ;
#23 = FACE_OUTER_BOUND ( 'NONE', #68, .T. ) ;
#24 = DIRECTION ( 'NONE',  ( 0.0000000000000000000, 1.000000000000000000, 0.0000000000000000000 ) ) ;
#25 = COORDINATED_UNIVERSAL_TIME_OFFSET ( 1, 0, .AHEAD. ) ;
#26 =( NAMED_UNIT ( * ) SI_UNIT ( $, .STERADIAN. ) SOLID_ANGLE_UNIT ( ) );
#27 = AXIS2_PLACEMENT_3D ( 'NONE', #109, #147, #94 ) ;
#28 = DATE_TIME_ROLE ( 'classification_date' ) ;
#29 = COORDINATED_UNIVERSAL_TIME_OFFSET ( 1, 0, .AHEAD. ) ;
#30 = VERTEX_POINT ( 'NONE', #52 ) ;
#31 = CARTESIAN_POINT ( 'NONE',  ( 1.047444401652940007E-13, -3.673940397442059178E-15, 30.00000000000000000 ) ) ;
#32 = DATE_AND_TIME ( #64, #85 ) ;
#33 = DIRECTION ( 'NONE',  ( 4.275831445896958607E-31, 1.000000000000000000, 1.224646799147353207E-16 ) ) ;
#34 = FACE_OUTER_BOUND ( 'NONE', #54, .T. ) ;
#35 = AXIS2_PLACEMENT_3D ( 'NONE', #57, #133, #24 ) ;
#36 = EDGE_CURVE ( 'NONE', #98, #98, #45, .T. ) ;
#37 = APPLICATION_PROTOCOL_DEFINITION ( 'international standard', 'config_control_design', 1994, #74 ) ;
#38 = DIRECTION ( 'NONE',  ( -4.275831445896958607E-31, -1.000000000000000000, -1.224646799147353207E-16 ) ) ;
#39 = AXIS2_PLACEMENT_3D ( 'NONE', #157, #104, #76 ) ;
#40 = CC_DESIGN_SECURITY_CLASSIFICATION ( #155, ( #69 ) ) ;
#41 = ORIENTED_EDGE ( 'NONE', *, *, #82, .F. ) ;
#42 = DIRECTION ( 'NONE',  ( 0.0000000000000000000, 1.000000000000000000, 0.0000000000000000000 ) ) ;
#43 = PERSON_AND_ORGANIZATION ( #118, #22 ) ;
#44 = DIRECTION ( 'NONE',  ( 3.491481338843133355E-15, -1.224646799147353207E-16, 1.000000000000000000 ) ) ;
#45 = CIRCLE ( 'NONE', #181, 2.999999999999990674 ) ;
#46 = ORIENTED_EDGE ( 'NONE', *, *, #80, .F. ) ;
#47 = LOCAL_TIME ( 9, 40, 33.00000000000000000, #124 ) ;
#48 = APPROVAL_PERSON_ORGANIZATION ( #96, #164, #67 ) ;
#49 = DESIGN_CONTEXT ( 'detailed design', #74, 'design' ) ;
#50 = FACE_OUTER_BOUND ( 'NONE', #159, .T. ) ;
#51 = MECHANICAL_CONTEXT ( 'NONE', #2, 'mechanical' ) ;
#52 = CARTESIAN_POINT ( 'NONE',  ( 2.423088049157134675E-13, 2.999999999999992895, 69.40000000000000568 ) ) ;
#53 = EDGE_LOOP ( 'NONE', ( #41 ) ) ;
#54 = EDGE_LOOP ( 'NONE', ( #20 ) ) ;
#55 = DIRECTION ( 'NONE',  ( -3.491481338843133355E-15, 1.224646799147353207E-16, -1.000000000000000000 ) ) ;
#56 = DIRECTION ( 'NONE',  ( 4.275831445896958607E-31, 1.000000000000000000, 1.224646799147353454E-16 ) ) ;
#57 = CARTESIAN_POINT ( 'NONE',  ( 2.444036937190193601E-13, -8.572527594031472993E-15, 70.00000000000000000 ) ) ;
#58 = AXIS2_PLACEMENT_3D ( 'NONE', #105, #199, #175 ) ;
#59 = PERSON_AND_ORGANIZATION ( #118, #22 ) ;
#60 = PLANE ( 'NONE',  #132 ) ;
#61 = DATE_AND_TIME ( #186, #47 ) ;
#62 = PRODUCT_RELATED_PRODUCT_CATEGORY ( 'detail', '', ( #154 ) ) ;
#63 = SHAPE_DEFINITION_REPRESENTATION ( #192, #144 ) ;
#64 = CALENDAR_DATE ( 2021, 8, 12 ) ;
#65 = LOCAL_TIME ( 9, 40, 33.00000000000000000, #25 ) ;
#66 = DIRECTION ( 'NONE',  ( 0.0000000000000000000, 1.000000000000000000, 0.0000000000000000000 ) ) ;
#67 = APPROVAL_ROLE ( '' ) ;
#68 = EDGE_LOOP ( 'NONE', ( #193 ) ) ;
#69 = PRODUCT_DEFINITION_FORMATION_WITH_SPECIFIED_SOURCE ( 'ANY', '', #154, .NOT_KNOWN. ) ;
#70 = PERSON_AND_ORGANIZATION_ROLE ( 'classification_officer' ) ;
#71 = CARTESIAN_POINT ( 'NONE',  ( 0.0000000000000000000, 0.0000000000000000000, 0.0000000000000000000 ) ) ;
#72 = EDGE_LOOP ( 'NONE', ( #46 ) ) ;
#73 = LOCAL_TIME ( 9, 40, 33.00000000000000000, #77 ) ;
#74 = APPLICATION_CONTEXT ( 'configuration controlled 3d designs of mechanical parts and assemblies' ) ;
#75 = APPROVAL_STATUS ( 'not_yet_approved' ) ;
#76 = DIRECTION ( 'NONE',  ( -4.275831445896958607E-31, -1.000000000000000000, -1.224646799147353207E-16 ) ) ;
#77 = COORDINATED_UNIVERSAL_TIME_OFFSET ( 1, 0, .AHEAD. ) ;
#78 = CALENDAR_DATE ( 2021, 8, 12 ) ;
#79 = APPLICATION_PROTOCOL_DEFINITION ( 'international standard', 'config_control_design', 1994, #2 ) ;
#80 = EDGE_CURVE ( 'NONE', #165, #165, #179, .T. ) ;
#81 = AXIS2_PLACEMENT_3D ( 'NONE', #180, #44, #138 ) ;
#82 = EDGE_CURVE ( 'NONE', #122, #122, #173, .T. ) ;
#83 = ORIENTED_EDGE ( 'NONE', *, *, #36, .F. ) ;
#84 = CARTESIAN_POINT ( 'NONE',  ( 1.047444401652940007E-13, -3.673940397442059178E-15, 30.00000000000000000 ) ) ;
#85 = LOCAL_TIME ( 9, 40, 33.00000000000000000, #1 ) ;
#86 = MANIFOLD_SOLID_BREP ( 'Corps-Déplacer/Copier1[1]', #129 ) ;
#87 = EDGE_CURVE ( 'NONE', #30, #30, #13, .T. ) ;
#88 = CALENDAR_DATE ( 2021, 8, 12 ) ;
#89 = DIRECTION ( 'NONE',  ( 0.0000000000000000000, 1.000000000000000000, 0.0000000000000000000 ) ) ;
#90 = FACE_OUTER_BOUND ( 'NONE', #99, .T. ) ;
#91 = PERSON_AND_ORGANIZATION ( #118, #22 ) ;
#92 = LOCAL_TIME ( 9, 40, 33.00000000000000000, #29 ) ;
#93 = DIRECTION ( 'NONE',  ( -3.491481338843133355E-15, 1.224646799147353207E-16, -1.000000000000000000 ) ) ;
#94 = DIRECTION ( 'NONE',  ( 1.000000000000000000, 0.0000000000000000000, 0.0000000000000000000 ) ) ;
#95 = ADVANCED_FACE ( 'NONE', ( #130, #190 ), #101, .T. ) ;
#96 = PERSON_AND_ORGANIZATION ( #118, #22 ) ;
#97 = CC_DESIGN_APPROVAL ( #156, ( #69 ) ) ;
#98 = VERTEX_POINT ( 'NONE', #21 ) ;
#99 = EDGE_LOOP ( 'NONE', ( #151 ) ) ;
#100 = PERSON_AND_ORGANIZATION_ROLE ( 'design_supplier' ) ;
#101 = CYLINDRICAL_SURFACE ( 'NONE', #127, 2.999999999999998224 ) ;
#102 = CARTESIAN_POINT ( 'NONE',  ( -1.710321079297537539E-30, 5.998998797370000203E-32, -4.898554261969033220E-16 ) ) ;
#103 = APPROVAL ( #75, 'UNSPECIFIED' ) ;
#104 = DIRECTION ( 'NONE',  ( 3.491481338843133355E-15, -1.224646799147353207E-16, 1.000000000000000000 ) ) ;
#105 = CARTESIAN_POINT ( 'NONE',  ( 2.423088049157134675E-13, -8.499048786082631273E-15, 69.40000000000000568 ) ) ;
#106 = APPROVAL_DATE_TIME ( #32, #164 ) ;
#107 = EDGE_LOOP ( 'NONE', ( #6 ) ) ;
#108 = DATE_AND_TIME ( #88, #92 ) ;
#109 = CARTESIAN_POINT ( 'NONE',  ( 0.0000000000000000000, 0.0000000000000000000, 0.0000000000000000000 ) ) ;
#110 = AXIS2_PLACEMENT_3D ( 'NONE', #112, #116, #66 ) ;
#111 = APPROVAL_DATE_TIME ( #4, #156 ) ;
#112 = CARTESIAN_POINT ( 'NONE',  ( 2.444036937190193601E-13, -8.572527594031472993E-15, 70.00000000000000000 ) ) ;
#113 = ORIENTED_EDGE ( 'NONE', *, *, #87, .T. ) ;
#114 = CARTESIAN_POINT ( 'NONE',  ( 0.0000000000000000000, 0.0000000000000000000, 0.0000000000000000000 ) ) ;
#115 = CC_DESIGN_PERSON_AND_ORGANIZATION_ASSIGNMENT ( #149, #100, ( #69 ) ) ;
#116 = DIRECTION ( 'NONE',  ( -3.491481338843133355E-15, 1.224646799147353207E-16, -1.000000000000000000 ) ) ;
#117 = CC_DESIGN_PERSON_AND_ORGANIZATION_ASSIGNMENT ( #7, #70, ( #155 ) ) ;
#118 = PERSON ( 'UNSPECIFIED', 'UNSPECIFIED', 'UNSPECIFIED', ('UNSPECIFIED'), ('UNSPECIFIED'), ('UNSPECIFIED') ) ;
#119 = EDGE_LOOP ( 'NONE', ( #113 ) ) ;
#120 = CALENDAR_DATE ( 2021, 8, 12 ) ;
#121 =( LENGTH_UNIT ( ) NAMED_UNIT ( * ) SI_UNIT ( .MILLI., .METRE. ) );
#122 = VERTEX_POINT ( 'NONE', #18 ) ;
#123 = PERSON_AND_ORGANIZATION_ROLE ( 'creator' ) ;
#124 = COORDINATED_UNIVERSAL_TIME_OFFSET ( 1, 0, .AHEAD. ) ;
#125 = PRODUCT_DEFINITION ( 'UNKNOWN', '', #69, #49 ) ;
#126 = ORIENTED_EDGE ( 'NONE', *, *, #174, .T. ) ;
#127 = AXIS2_PLACEMENT_3D ( 'NONE', #71, #196, #56 ) ;
#128 = DIRECTION ( 'NONE',  ( 4.275831445896958607E-31, 1.000000000000000000, 1.224646799147352961E-16 ) ) ;
#129 = CLOSED_SHELL ( 'NONE', ( #12, #95, #187, #183 ) ) ;
#130 = FACE_OUTER_BOUND ( 'NONE', #171, .T. ) ;
#131 = ORIENTED_EDGE ( 'NONE', *, *, #174, .F. ) ;
#132 = AXIS2_PLACEMENT_3D ( 'NONE', #184, #195, #38 ) ;
#133 = DIRECTION ( 'NONE',  ( -3.491481338843133355E-15, 1.224646799147353207E-16, -1.000000000000000000 ) ) ;
#134 = DIRECTION ( 'NONE',  ( -3.491481338843133355E-15, 1.224646799147353207E-16, -1.000000000000000000 ) ) ;
#135 = CC_DESIGN_APPROVAL ( #164, ( #125 ) ) ;
#136 = CIRCLE ( 'NONE', #202, 2.999999999999994671 ) ;
#137 = CARTESIAN_POINT ( 'NONE',  ( 2.444036937190193601E-13, 2.399999999999992806, 70.00000000000000000 ) ) ;
#138 = DIRECTION ( 'NONE',  ( -4.275831445896958607E-31, -1.000000000000000000, -1.224646799147353207E-16 ) ) ;
#139 = DATE_TIME_ROLE ( 'creation_date' ) ;
#140 = CC_DESIGN_DATE_AND_TIME_ASSIGNMENT ( #182, #28, ( #155 ) ) ;
#141 = PLANE ( 'NONE',  #167 ) ;
#142 = DIRECTION ( 'NONE',  ( -3.491481338843133355E-15, 1.224646799147353207E-16, -1.000000000000000000 ) ) ;
#143 = CC_DESIGN_PERSON_AND_ORGANIZATION_ASSIGNMENT ( #91, #15, ( #154 ) ) ;
#144 = ADVANCED_BREP_SHAPE_REPRESENTATION ( '372616', ( #86, #19, #27 ), #5 ) ;
#145 = CARTESIAN_POINT ( 'NONE',  ( 1.047444401652940007E-13, 2.999999999999991562, 30.00000000000000000 ) ) ;
#146 = PERSON_AND_ORGANIZATION ( #118, #22 ) ;
#147 = DIRECTION ( 'NONE',  ( 0.0000000000000000000, 0.0000000000000000000, 1.000000000000000000 ) ) ;
#148 = APPROVAL_STATUS ( 'not_yet_approved' ) ;
#149 = PERSON_AND_ORGANIZATION ( #118, #22 ) ;
#150 = CC_DESIGN_DATE_AND_TIME_ASSIGNMENT ( #61, #139, ( #125 ) ) ;
#151 = ORIENTED_EDGE ( 'NONE', *, *, #87, .F. ) ;
#152 = SECURITY_CLASSIFICATION_LEVEL ( 'unclassified' ) ;
#153 = FACE_OUTER_BOUND ( 'NONE', #176, .T. ) ;
#154 = PRODUCT ( '372616', '372616', '', ( #51 ) ) ;
#155 = SECURITY_CLASSIFICATION ( '', '', #152 ) ;
#156 = APPROVAL ( #11, 'UNSPECIFIED' ) ;
#157 = CARTESIAN_POINT ( 'NONE',  ( -8.551605396487687697E-31, 2.999499398685000102E-32, -2.449277130984516610E-16 ) ) ;
#158 = FACE_OUTER_BOUND ( 'NONE', #72, .T. ) ;
#159 = EDGE_LOOP ( 'NONE', ( #83 ) ) ;
#160 = DIRECTION ( 'NONE',  ( -3.491481338843133355E-15, 1.224646799147353207E-16, -1.000000000000000000 ) ) ;
#161 = CARTESIAN_POINT ( 'NONE',  ( 2.444036937190193601E-13, 1.799711739194217087E-32, 70.00000000000000000 ) ) ;
#162 = CC_DESIGN_PERSON_AND_ORGANIZATION_ASSIGNMENT ( #146, #194, ( #69 ) ) ;
#163 = APPROVAL_PERSON_ORGANIZATION ( #43, #156, #14 ) ;
#164 = APPROVAL ( #148, 'UNSPECIFIED' ) ;
#165 = VERTEX_POINT ( 'NONE', #137 ) ;
#166 = PERSON_AND_ORGANIZATION ( #118, #22 ) ;
#167 = AXIS2_PLACEMENT_3D ( 'NONE', #161, #142, #33 ) ;
#168 = CLOSED_SHELL ( 'NONE', ( #9, #200, #170 ) ) ;
#169 = AXIS2_PLACEMENT_3D ( 'NONE', #84, #134, #42 ) ;
#170 = ADVANCED_FACE ( 'NONE', ( #177 ), #203, .T. ) ;
#171 = EDGE_LOOP ( 'NONE', ( #131 ) ) ;
#172 = UNCERTAINTY_MEASURE_WITH_UNIT (LENGTH_MEASURE( 1.000000000000000082E-05 ), #121, 'distance_accuracy_value', 'NONE');
#173 = CIRCLE ( 'NONE', #169, 2.999999999999994671 ) ;
#174 = EDGE_CURVE ( 'NONE', #17, #17, #136, .T. ) ;
#175 = DIRECTION ( 'NONE',  ( 0.0000000000000000000, 1.000000000000000000, 0.0000000000000000000 ) ) ;
#176 = EDGE_LOOP ( 'NONE', ( #126 ) ) ;
#177 = FACE_OUTER_BOUND ( 'NONE', #53, .T. ) ;
#178 =( NAMED_UNIT ( * ) PLANE_ANGLE_UNIT ( ) SI_UNIT ( $, .RADIAN. ) );
#179 = CIRCLE ( 'NONE', #35, 2.400000000000001688 ) ;
#180 = CARTESIAN_POINT ( 'NONE',  ( 1.047444401652940007E-13, 2.249639673992777380E-32, 30.00000000000000000 ) ) ;
#181 = AXIS2_PLACEMENT_3D ( 'NONE', #102, #55, #8 ) ;
#182 = DATE_AND_TIME ( #120, #65 ) ;
#183 = ADVANCED_FACE ( 'NONE', ( #158 ), #141, .F. ) ;
#184 = CARTESIAN_POINT ( 'NONE',  ( 1.047444401652940007E-13, 2.249639673992777380E-32, 30.00000000000000000 ) ) ;
#185 = APPROVAL_DATE_TIME ( #108, #103 ) ;
#186 = CALENDAR_DATE ( 2021, 8, 12 ) ;
#187 = ADVANCED_FACE ( 'NONE', ( #90, #3 ), #198, .T. ) ;
#188 = CC_DESIGN_PERSON_AND_ORGANIZATION_ASSIGNMENT ( #59, #123, ( #125 ) ) ;
#189 = CC_DESIGN_APPROVAL ( #103, ( #155 ) ) ;
#190 = FACE_OUTER_BOUND ( 'NONE', #119, .T. ) ;
#191 = CYLINDRICAL_SURFACE ( 'NONE', #16, 2.999999999999992895 ) ;
#192 = PRODUCT_DEFINITION_SHAPE ( 'NONE', 'NONE',  #125 ) ;
#193 = ORIENTED_EDGE ( 'NONE', *, *, #36, .T. ) ;
#194 = PERSON_AND_ORGANIZATION_ROLE ( 'creator' ) ;
#195 = DIRECTION ( 'NONE',  ( 3.491481338843133355E-15, -1.224646799147353207E-16, 1.000000000000000000 ) ) ;
#196 = DIRECTION ( 'NONE',  ( -3.491481338843133355E-15, 1.224646799147353207E-16, -1.000000000000000000 ) ) ;
#197 = PLANE ( 'NONE',  #39 ) ;
#198 = CONICAL_SURFACE ( 'NONE', #110, 2.400000000000001688, 0.7853981633974453924 ) ;
#199 = DIRECTION ( 'NONE',  ( -3.491481338843133355E-15, 1.224646799147353207E-16, -1.000000000000000000 ) ) ;
#200 = ADVANCED_FACE ( 'NONE', ( #50, #34 ), #191, .T. ) ;
#201 = APPROVAL_ROLE ( '' ) ;
#202 = AXIS2_PLACEMENT_3D ( 'NONE', #31, #93, #89 ) ;
#203 = PLANE ( 'NONE',  #81 ) ;
ENDSEC;
END-ISO-10303-21;
