ISO-10303-21;
HEADER;
FILE_DESCRIPTION (( 'STEP AP203' ),
    '1' );
FILE_NAME ('372615.step',
    '2021-12-08T08:40:33',
    ( '' ),
    ( '' ),
    'SwSTEP 2.0',
    'SolidWorks 2019',
    '' );
FILE_SCHEMA (( 'CONFIG_CONTROL_DESIGN' ));
ENDSEC;

DATA;
#1 = DIRECTION ( 'NONE',  ( 3.491481338843133355E-15, -1.224646799147353207E-16, 1.000000000000000000 ) ) ;
#2 = AXIS2_PLACEMENT_3D ( 'NONE', #29, #146, #171 ) ;
#3 = ORIENTED_EDGE ( 'NONE', *, *, #51, .F. ) ;
#4 = DESIGN_CONTEXT ( 'detailed design', #164, 'design' ) ;
#5 = CC_DESIGN_PERSON_AND_ORGANIZATION_ASSIGNMENT ( #89, #18, ( #122 ) ) ;
#6 = CARTESIAN_POINT ( 'NONE',  ( -4.275716455284538985E-31, 2.999999999999990674, -1.224613864526984692E-16 ) ) ;
#7 = PERSON_AND_ORGANIZATION ( #163, #32 ) ;
#8 = EDGE_LOOP ( 'NONE', ( #80 ) ) ;
#9 = DIRECTION ( 'NONE',  ( 0.0000000000000000000, 0.0000000000000000000, 1.000000000000000000 ) ) ;
#10 = DIRECTION ( 'NONE',  ( -3.491481338843133355E-15, 1.224646799147353207E-16, -1.000000000000000000 ) ) ;
#11 = EDGE_CURVE ( 'NONE', #96, #96, #132, .T. ) ;
#12 = MANIFOLD_SOLID_BREP ( 'Corps-Déplacer/Copier1[1]', #77 ) ;
#13 = DIRECTION ( 'NONE',  ( -3.491481338843133355E-15, 1.224646799147353207E-16, -1.000000000000000000 ) ) ;
#14 = PLANE ( 'NONE',  #43 ) ;
#15 = CIRCLE ( 'NONE', #74, 2.400000000000001688 ) ;
#16 = APPROVAL_STATUS ( 'not_yet_approved' ) ;
#17 = DATE_TIME_ROLE ( 'classification_date' ) ;
#18 = PERSON_AND_ORGANIZATION_ROLE ( 'classification_officer' ) ;
#19 = PRODUCT_DEFINITION_FORMATION_WITH_SPECIFIED_SOURCE ( 'ANY', '', #24, .NOT_KNOWN. ) ;
#20 = CC_DESIGN_PERSON_AND_ORGANIZATION_ASSIGNMENT ( #79, #149, ( #24 ) ) ;
#21 = AXIS2_PLACEMENT_3D ( 'NONE', #50, #150, #201 ) ;
#22 = LOCAL_TIME ( 9, 40, 33.00000000000000000, #176 ) ;
#23 = DIRECTION ( 'NONE',  ( 3.491481338843133355E-15, -1.224646799147353207E-16, 1.000000000000000000 ) ) ;
#24 = PRODUCT ( '372615', '372615', '', ( #169 ) ) ;
#25 = PERSON_AND_ORGANIZATION ( #163, #32 ) ;
#26 = DIRECTION ( 'NONE',  ( -3.491481338843133355E-15, 1.224646799147353207E-16, -1.000000000000000000 ) ) ;
#27 = EDGE_LOOP ( 'NONE', ( #36 ) ) ;
#28 = DIRECTION ( 'NONE',  ( -3.491481338843133355E-15, 1.224646799147353207E-16, -1.000000000000000000 ) ) ;
#29 = CARTESIAN_POINT ( 'NONE',  ( 8.379555213223520053E-14, -2.939152317953647894E-15, 24.00000000000000000 ) ) ;
#30 = EDGE_LOOP ( 'NONE', ( #138 ) ) ;
#31 = PERSON_AND_ORGANIZATION_ROLE ( 'design_supplier' ) ;
#32 = ORGANIZATION ( 'UNSPECIFIED', 'UNSPECIFIED', '' ) ;
#33 = CARTESIAN_POINT ( 'NONE',  ( 8.379555213223520053E-14, 2.249639673992777654E-32, 24.00000000000000000 ) ) ;
#34 = EDGE_LOOP ( 'NONE', ( #131 ) ) ;
#35 = AXIS2_PLACEMENT_3D ( 'NONE', #126, #28, #180 ) ;
#36 = ORIENTED_EDGE ( 'NONE', *, *, #198, .F. ) ;
#37 = CARTESIAN_POINT ( 'NONE',  ( 8.379555213223520053E-14, 2.249639673992777654E-32, 24.00000000000000000 ) ) ;
#38 = CYLINDRICAL_SURFACE ( 'NONE', #86, 2.999999999999992450 ) ;
#39 = PERSON_AND_ORGANIZATION ( #163, #32 ) ;
#40 = CC_DESIGN_PERSON_AND_ORGANIZATION_ASSIGNMENT ( #39, #31, ( #19 ) ) ;
#41 = VERTEX_POINT ( 'NONE', #6 ) ;
#42 = ADVANCED_FACE ( 'NONE', ( #116, #174 ), #123, .T. ) ;
#43 = AXIS2_PLACEMENT_3D ( 'NONE', #137, #23, #45 ) ;
#44 = CIRCLE ( 'NONE', #56, 2.999999999999990674 ) ;
#45 = DIRECTION ( 'NONE',  ( -4.275831445896958607E-31, -1.000000000000000000, -1.224646799147353207E-16 ) ) ;
#46 = FACE_OUTER_BOUND ( 'NONE', #202, .T. ) ;
#47 = DATE_AND_TIME ( #136, #167 ) ;
#48 = PLANE ( 'NONE',  #196 ) ;
#49 = APPROVAL_DATE_TIME ( #47, #61 ) ;
#50 = CARTESIAN_POINT ( 'NONE',  ( 2.444036937190193601E-13, 1.799711739194217087E-32, 70.00000000000000000 ) ) ;
#51 = EDGE_CURVE ( 'NONE', #87, #87, #83, .T. ) ;
#52 = DIRECTION ( 'NONE',  ( -3.491481338843133355E-15, 1.224646799147353207E-16, -1.000000000000000000 ) ) ;
#53 = PERSON_AND_ORGANIZATION ( #163, #32 ) ;
#54 = CARTESIAN_POINT ( 'NONE',  ( 2.444036937190193601E-13, 2.399999999999992806, 70.00000000000000000 ) ) ;
#55 = CALENDAR_DATE ( 2021, 8, 12 ) ;
#56 = AXIS2_PLACEMENT_3D ( 'NONE', #170, #13, #65 ) ;
#57 = LOCAL_TIME ( 9, 40, 33.00000000000000000, #141 ) ;
#58 = CALENDAR_DATE ( 2021, 8, 12 ) ;
#59 = APPROVAL_ROLE ( '' ) ;
#60 = CC_DESIGN_APPROVAL ( #127, ( #19 ) ) ;
#61 = APPROVAL ( #124, 'UNSPECIFIED' ) ;
#62 = APPROVAL_PERSON_ORGANIZATION ( #25, #186, #162 ) ;
#63 = DIRECTION ( 'NONE',  ( 3.491481338843133355E-15, -1.224646799147353207E-16, 1.000000000000000000 ) ) ;
#64 = ADVANCED_BREP_SHAPE_REPRESENTATION ( '372615', ( #12, #72, #145 ), #152 ) ;
#65 = DIRECTION ( 'NONE',  ( 4.275831445896958607E-31, 1.000000000000000000, 1.224646799147353207E-16 ) ) ;
#66 = CARTESIAN_POINT ( 'NONE',  ( 0.0000000000000000000, 0.0000000000000000000, 0.0000000000000000000 ) ) ;
#67 = PERSON_AND_ORGANIZATION_ROLE ( 'creator' ) ;
#68 = CC_DESIGN_DATE_AND_TIME_ASSIGNMENT ( #129, #17, ( #122 ) ) ;
#69 = DIRECTION ( 'NONE',  ( 4.275831445896958607E-31, 1.000000000000000000, 1.224646799147353454E-16 ) ) ;
#70 = CC_DESIGN_APPROVAL ( #61, ( #194 ) ) ;
#71 = PRODUCT_DEFINITION_SHAPE ( 'NONE', 'NONE',  #194 ) ;
#72 = MANIFOLD_SOLID_BREP ( 'Corps-Déplacer/Copier1[2]', #97 ) ;
#73 = DATE_AND_TIME ( #58, #57 ) ;
#74 = AXIS2_PLACEMENT_3D ( 'NONE', #95, #203, #114 ) ;
#75 = APPLICATION_CONTEXT ( 'configuration controlled 3d designs of mechanical parts and assemblies' ) ;
#76 = ADVANCED_FACE ( 'NONE', ( #46 ), #14, .F. ) ;
#77 = CLOSED_SHELL ( 'NONE', ( #120, #158, #42, #172 ) ) ;
#78 = PLANE ( 'NONE',  #117 ) ;
#79 = PERSON_AND_ORGANIZATION ( #163, #32 ) ;
#80 = ORIENTED_EDGE ( 'NONE', *, *, #11, .T. ) ;
#81 = EDGE_LOOP ( 'NONE', ( #85 ) ) ;
#82 = EDGE_LOOP ( 'NONE', ( #105 ) ) ;
#83 = CIRCLE ( 'NONE', #2, 2.999999999999994227 ) ;
#84 = PLANE ( 'NONE',  #21 ) ;
#85 = ORIENTED_EDGE ( 'NONE', *, *, #51, .T. ) ;
#86 = AXIS2_PLACEMENT_3D ( 'NONE', #66, #10, #200 ) ;
#87 = VERTEX_POINT ( 'NONE', #118 ) ;
#88 = ORIENTED_EDGE ( 'NONE', *, *, #154, .T. ) ;
#89 = PERSON_AND_ORGANIZATION ( #163, #32 ) ;
#90 = SHAPE_DEFINITION_REPRESENTATION ( #71, #64 ) ;
#91 = EDGE_CURVE ( 'NONE', #190, #190, #157, .T. ) ;
#92 = FACE_OUTER_BOUND ( 'NONE', #34, .T. ) ;
#93 = DIRECTION ( 'NONE',  ( 1.000000000000000000, 0.0000000000000000000, 0.0000000000000000000 ) ) ;
#94 = FACE_OUTER_BOUND ( 'NONE', #27, .T. ) ;
#95 = CARTESIAN_POINT ( 'NONE',  ( 2.444036937190193601E-13, -8.572527594031472993E-15, 70.00000000000000000 ) ) ;
#96 = VERTEX_POINT ( 'NONE', #189 ) ;
#97 = CLOSED_SHELL ( 'NONE', ( #76, #142, #140 ) ) ;
#98 = DATE_AND_TIME ( #55, #133 ) ;
#99 = DIRECTION ( 'NONE',  ( 0.0000000000000000000, 1.000000000000000000, 0.0000000000000000000 ) ) ;
#100 = COORDINATED_UNIVERSAL_TIME_OFFSET ( 1, 0, .AHEAD. ) ;
#101 = CC_DESIGN_PERSON_AND_ORGANIZATION_ASSIGNMENT ( #195, #104, ( #19 ) ) ;
#102 = EDGE_LOOP ( 'NONE', ( #153 ) ) ;
#103 = CALENDAR_DATE ( 2021, 8, 12 ) ;
#104 = PERSON_AND_ORGANIZATION_ROLE ( 'creator' ) ;
#105 = ORIENTED_EDGE ( 'NONE', *, *, #91, .T. ) ;
#106 = AXIS2_PLACEMENT_3D ( 'NONE', #111, #52, #69 ) ;
#107 = CC_DESIGN_PERSON_AND_ORGANIZATION_ASSIGNMENT ( #53, #67, ( #194 ) ) ;
#108 = DATE_AND_TIME ( #103, #22 ) ;
#109 = COORDINATED_UNIVERSAL_TIME_OFFSET ( 1, 0, .AHEAD. ) ;
#110 = FACE_OUTER_BOUND ( 'NONE', #161, .T. ) ;
#111 = CARTESIAN_POINT ( 'NONE',  ( 0.0000000000000000000, 0.0000000000000000000, 0.0000000000000000000 ) ) ;
#112 = CC_DESIGN_SECURITY_CLASSIFICATION ( #122, ( #19 ) ) ;
#113 = ORIENTED_EDGE ( 'NONE', *, *, #11, .F. ) ;
#114 = DIRECTION ( 'NONE',  ( 0.0000000000000000000, 1.000000000000000000, 0.0000000000000000000 ) ) ;
#115 = PERSON_AND_ORGANIZATION ( #163, #32 ) ;
#116 = FACE_OUTER_BOUND ( 'NONE', #135, .T. ) ;
#117 = AXIS2_PLACEMENT_3D ( 'NONE', #37, #1, #199 ) ;
#118 = CARTESIAN_POINT ( 'NONE',  ( 8.379555213223520053E-14, 2.999999999999991562, 24.00000000000000000 ) ) ;
#119 = APPROVAL_DATE_TIME ( #108, #127 ) ;
#120 = ADVANCED_FACE ( 'NONE', ( #185 ), #78, .F. ) ;
#121 = AXIS2_PLACEMENT_3D ( 'NONE', #155, #188, #99 ) ;
#122 = SECURITY_CLASSIFICATION ( '', '', #159 ) ;
#123 = CONICAL_SURFACE ( 'NONE', #35, 2.400000000000001688, 0.7853981633974453924 ) ;
#124 = APPROVAL_STATUS ( 'not_yet_approved' ) ;
#125 = PRODUCT_RELATED_PRODUCT_CATEGORY ( 'detail', '', ( #24 ) ) ;
#126 = CARTESIAN_POINT ( 'NONE',  ( 2.444036937190193601E-13, -8.572527594031472993E-15, 70.00000000000000000 ) ) ;
#127 = APPROVAL ( #156, 'UNSPECIFIED' ) ;
#128 =( NAMED_UNIT ( * ) PLANE_ANGLE_UNIT ( ) SI_UNIT ( $, .RADIAN. ) );
#129 = DATE_AND_TIME ( #166, #192 ) ;
#130 = FACE_OUTER_BOUND ( 'NONE', #8, .T. ) ;
#131 = ORIENTED_EDGE ( 'NONE', *, *, #91, .F. ) ;
#132 = CIRCLE ( 'NONE', #121, 3.000000000000001332 ) ;
#133 = LOCAL_TIME ( 9, 40, 33.00000000000000000, #187 ) ;
#134 = DIRECTION ( 'NONE',  ( 0.0000000000000000000, 1.000000000000000000, 0.0000000000000000000 ) ) ;
#135 = EDGE_LOOP ( 'NONE', ( #113 ) ) ;
#136 = CALENDAR_DATE ( 2021, 8, 12 ) ;
#137 = CARTESIAN_POINT ( 'NONE',  ( -8.551605396487687697E-31, 2.999499398685000102E-32, -2.449277130984516610E-16 ) ) ;
#138 = ORIENTED_EDGE ( 'NONE', *, *, #198, .T. ) ;
#139 = APPROVAL_PERSON_ORGANIZATION ( #7, #61, #173 ) ;
#140 = ADVANCED_FACE ( 'NONE', ( #110 ), #48, .T. ) ;
#141 = COORDINATED_UNIVERSAL_TIME_OFFSET ( 1, 0, .AHEAD. ) ;
#142 = ADVANCED_FACE ( 'NONE', ( #183, #151 ), #38, .T. ) ;
#143 = APPROVAL_PERSON_ORGANIZATION ( #115, #127, #59 ) ;
#144 =( LENGTH_UNIT ( ) NAMED_UNIT ( * ) SI_UNIT ( .MILLI., .METRE. ) );
#145 = AXIS2_PLACEMENT_3D ( 'NONE', #147, #9, #93 ) ;
#146 = DIRECTION ( 'NONE',  ( -3.491481338843133355E-15, 1.224646799147353207E-16, -1.000000000000000000 ) ) ;
#147 = CARTESIAN_POINT ( 'NONE',  ( 0.0000000000000000000, 0.0000000000000000000, 0.0000000000000000000 ) ) ;
#148 = CARTESIAN_POINT ( 'NONE',  ( 8.379555213223520053E-14, -2.939152317953647894E-15, 24.00000000000000000 ) ) ;
#149 = PERSON_AND_ORGANIZATION_ROLE ( 'design_owner' ) ;
#150 = DIRECTION ( 'NONE',  ( -3.491481338843133355E-15, 1.224646799147353207E-16, -1.000000000000000000 ) ) ;
#151 = FACE_OUTER_BOUND ( 'NONE', #81, .T. ) ;
#152 =( GEOMETRIC_REPRESENTATION_CONTEXT ( 3 ) GLOBAL_UNCERTAINTY_ASSIGNED_CONTEXT ( ( #191 ) ) GLOBAL_UNIT_ASSIGNED_CONTEXT ( ( #144, #128, #165 ) ) REPRESENTATION_CONTEXT ( 'NONE', 'WORKASPACE' ) );
#153 = ORIENTED_EDGE ( 'NONE', *, *, #154, .F. ) ;
#154 = EDGE_CURVE ( 'NONE', #41, #41, #44, .T. ) ;
#155 = CARTESIAN_POINT ( 'NONE',  ( 2.423088049157134675E-13, -8.499048786082631273E-15, 69.40000000000000568 ) ) ;
#156 = APPROVAL_STATUS ( 'not_yet_approved' ) ;
#157 = CIRCLE ( 'NONE', #182, 2.999999999999994227 ) ;
#158 = ADVANCED_FACE ( 'NONE', ( #92, #130 ), #168, .T. ) ;
#159 = SECURITY_CLASSIFICATION_LEVEL ( 'unclassified' ) ;
#160 = CARTESIAN_POINT ( 'NONE',  ( 8.379555213223520053E-14, 2.999999999999991562, 24.00000000000000000 ) ) ;
#161 = EDGE_LOOP ( 'NONE', ( #3 ) ) ;
#162 = APPROVAL_ROLE ( '' ) ;
#163 = PERSON ( 'UNSPECIFIED', 'UNSPECIFIED', 'UNSPECIFIED', ('UNSPECIFIED'), ('UNSPECIFIED'), ('UNSPECIFIED') ) ;
#164 = APPLICATION_CONTEXT ( 'configuration controlled 3d designs of mechanical parts and assemblies' ) ;
#165 =( NAMED_UNIT ( * ) SI_UNIT ( $, .STERADIAN. ) SOLID_ANGLE_UNIT ( ) );
#166 = CALENDAR_DATE ( 2021, 8, 12 ) ;
#167 = LOCAL_TIME ( 9, 40, 33.00000000000000000, #100 ) ;
#168 = CYLINDRICAL_SURFACE ( 'NONE', #106, 2.999999999999997780 ) ;
#169 = MECHANICAL_CONTEXT ( 'NONE', #75, 'mechanical' ) ;
#170 = CARTESIAN_POINT ( 'NONE',  ( -1.710321079297537539E-30, 5.998998797370000203E-32, -4.898554261969033220E-16 ) ) ;
#171 = DIRECTION ( 'NONE',  ( 0.0000000000000000000, 1.000000000000000000, 0.0000000000000000000 ) ) ;
#172 = ADVANCED_FACE ( 'NONE', ( #94 ), #84, .F. ) ;
#173 = APPROVAL_ROLE ( '' ) ;
#174 = FACE_BOUND ( 'NONE', #30, .T. ) ;
#175 = DIRECTION ( 'NONE',  ( -4.275831445896958607E-31, -1.000000000000000000, -1.224646799147353207E-16 ) ) ;
#176 = COORDINATED_UNIVERSAL_TIME_OFFSET ( 1, 0, .AHEAD. ) ;
#177 = CC_DESIGN_DATE_AND_TIME_ASSIGNMENT ( #98, #184, ( #194 ) ) ;
#178 = CC_DESIGN_APPROVAL ( #186, ( #122 ) ) ;
#179 = APPROVAL_DATE_TIME ( #73, #186 ) ;
#180 = DIRECTION ( 'NONE',  ( 0.0000000000000000000, 1.000000000000000000, 0.0000000000000000000 ) ) ;
#181 = APPLICATION_PROTOCOL_DEFINITION ( 'international standard', 'config_control_design', 1994, #75 ) ;
#182 = AXIS2_PLACEMENT_3D ( 'NONE', #148, #26, #134 ) ;
#183 = FACE_OUTER_BOUND ( 'NONE', #102, .T. ) ;
#184 = DATE_TIME_ROLE ( 'creation_date' ) ;
#185 = FACE_OUTER_BOUND ( 'NONE', #82, .T. ) ;
#186 = APPROVAL ( #16, 'UNSPECIFIED' ) ;
#187 = COORDINATED_UNIVERSAL_TIME_OFFSET ( 1, 0, .AHEAD. ) ;
#188 = DIRECTION ( 'NONE',  ( -3.491481338843133355E-15, 1.224646799147353207E-16, -1.000000000000000000 ) ) ;
#189 = CARTESIAN_POINT ( 'NONE',  ( 2.423088049157134675E-13, 2.999999999999992895, 69.40000000000000568 ) ) ;
#190 = VERTEX_POINT ( 'NONE', #160 ) ;
#191 = UNCERTAINTY_MEASURE_WITH_UNIT (LENGTH_MEASURE( 1.000000000000000082E-05 ), #144, 'distance_accuracy_value', 'NONE');
#192 = LOCAL_TIME ( 9, 40, 33.00000000000000000, #109 ) ;
#193 = VERTEX_POINT ( 'NONE', #54 ) ;
#194 = PRODUCT_DEFINITION ( 'UNKNOWN', '', #19, #4 ) ;
#195 = PERSON_AND_ORGANIZATION ( #163, #32 ) ;
#196 = AXIS2_PLACEMENT_3D ( 'NONE', #33, #63, #175 ) ;
#197 = APPLICATION_PROTOCOL_DEFINITION ( 'international standard', 'config_control_design', 1994, #164 ) ;
#198 = EDGE_CURVE ( 'NONE', #193, #193, #15, .T. ) ;
#199 = DIRECTION ( 'NONE',  ( -4.275831445896958607E-31, -1.000000000000000000, -1.224646799147353207E-16 ) ) ;
#200 = DIRECTION ( 'NONE',  ( 4.275831445896958607E-31, 1.000000000000000000, 1.224646799147353207E-16 ) ) ;
#201 = DIRECTION ( 'NONE',  ( 4.275831445896958607E-31, 1.000000000000000000, 1.224646799147353207E-16 ) ) ;
#202 = EDGE_LOOP ( 'NONE', ( #88 ) ) ;
#203 = DIRECTION ( 'NONE',  ( -3.491481338843133355E-15, 1.224646799147353207E-16, -1.000000000000000000 ) ) ;
ENDSEC;
END-ISO-10303-21;
