ISO-10303-21;
HEADER;
FILE_DESCRIPTION (( 'STEP AP203' ),
    '1' );
FILE_NAME ('372614.step',
    '2021-12-08T08:40:32',
    ( '' ),
    ( '' ),
    'SwSTEP 2.0',
    'SolidWorks 2019',
    '' );
FILE_SCHEMA (( 'CONFIG_CONTROL_DESIGN' ));
ENDSEC;

DATA;
#1 = SECURITY_CLASSIFICATION_LEVEL ( 'unclassified' ) ;
#2 = APPROVAL_PERSON_ORGANIZATION ( #96, #4, #138 ) ;
#3 = PERSON_AND_ORGANIZATION_ROLE ( 'creator' ) ;
#4 = APPROVAL ( #82, 'UNSPECIFIED' ) ;
#5 = PLANE ( 'NONE',  #8 ) ;
#6 = MANIFOLD_SOLID_BREP ( 'Corps-Déplacer/Copier1[1]', #54 ) ;
#7 = UNCERTAINTY_MEASURE_WITH_UNIT (LENGTH_MEASURE( 1.000000000000000082E-05 ), #12, 'distance_accuracy_value', 'NONE');
#8 = AXIS2_PLACEMENT_3D ( 'NONE', #170, #193, #190 ) ;
#9 = MANIFOLD_SOLID_BREP ( 'Corps-Déplacer/Copier1[2]', #108 ) ;
#10 = VERTEX_POINT ( 'NONE', #23 ) ;
#11 = EDGE_LOOP ( 'NONE', ( #200 ) ) ;
#12 =( LENGTH_UNIT ( ) NAMED_UNIT ( * ) SI_UNIT ( .MILLI., .METRE. ) );
#13 = PERSON_AND_ORGANIZATION ( #188, #79 ) ;
#14 = PERSON_AND_ORGANIZATION_ROLE ( 'design_supplier' ) ;
#15 = CIRCLE ( 'NONE', #70, 2.999999999999994227 ) ;
#16 = LOCAL_TIME ( 9, 40, 32.00000000000000000, #33 ) ;
#17 = CALENDAR_DATE ( 2021, 8, 12 ) ;
#18 = DIRECTION ( 'NONE',  ( 4.275831445896958607E-31, 1.000000000000000000, 1.224646799147353454E-16 ) ) ;
#19 = AXIS2_PLACEMENT_3D ( 'NONE', #71, #86, #99 ) ;
#20 = ADVANCED_BREP_SHAPE_REPRESENTATION ( '372614', ( #6, #9, #51 ), #149 ) ;
#21 = CONICAL_SURFACE ( 'NONE', #92, 2.400000000000001688, 0.7853981633974453924 ) ;
#22 = DIRECTION ( 'NONE',  ( 0.0000000000000000000, 1.000000000000000000, 0.0000000000000000000 ) ) ;
#23 = CARTESIAN_POINT ( 'NONE',  ( 2.073939915272820834E-13, 2.999999999999993783, 59.39999999999999147 ) ) ;
#24 = VERTEX_POINT ( 'NONE', #47 ) ;
#25 = ADVANCED_FACE ( 'NONE', ( #91, #163 ), #81, .T. ) ;
#26 = ORIENTED_EDGE ( 'NONE', *, *, #52, .F. ) ;
#27 = DIRECTION ( 'NONE',  ( 3.491481338843133355E-15, -1.224646799147353207E-16, 1.000000000000000000 ) ) ;
#28 = PERSON_AND_ORGANIZATION_ROLE ( 'design_owner' ) ;
#29 = ADVANCED_FACE ( 'NONE', ( #135 ), #5, .F. ) ;
#30 = EDGE_LOOP ( 'NONE', ( #131 ) ) ;
#31 = CALENDAR_DATE ( 2021, 8, 12 ) ;
#32 = EDGE_LOOP ( 'NONE', ( #78 ) ) ;
#33 = COORDINATED_UNIVERSAL_TIME_OFFSET ( 1, 0, .AHEAD. ) ;
#34 = APPLICATION_PROTOCOL_DEFINITION ( 'international standard', 'config_control_design', 1994, #141 ) ;
#35 = CC_DESIGN_DATE_AND_TIME_ASSIGNMENT ( #83, #189, ( #37 ) ) ;
#36 = CIRCLE ( 'NONE', #182, 3.000000000000001332 ) ;
#37 = SECURITY_CLASSIFICATION ( '', '', #1 ) ;
#38 = ADVANCED_FACE ( 'NONE', ( #179 ), #101, .T. ) ;
#39 = PLANE ( 'NONE',  #140 ) ;
#40 =( NAMED_UNIT ( * ) SI_UNIT ( $, .STERADIAN. ) SOLID_ANGLE_UNIT ( ) );
#41 = DIRECTION ( 'NONE',  ( 1.000000000000000000, 0.0000000000000000000, 0.0000000000000000000 ) ) ;
#42 = ORIENTED_EDGE ( 'NONE', *, *, #105, .F. ) ;
#43 = CC_DESIGN_APPROVAL ( #4, ( #139 ) ) ;
#44 = DIRECTION ( 'NONE',  ( -3.491481338843133355E-15, 1.224646799147353207E-16, -1.000000000000000000 ) ) ;
#45 = CARTESIAN_POINT ( 'NONE',  ( 0.0000000000000000000, 0.0000000000000000000, 0.0000000000000000000 ) ) ;
#46 = EDGE_LOOP ( 'NONE', ( #166 ) ) ;
#47 = CARTESIAN_POINT ( 'NONE',  ( -4.275797418869256481E-31, 2.999999999999990674, -1.224637053419279339E-16 ) ) ;
#48 = DESIGN_CONTEXT ( 'detailed design', #141, 'design' ) ;
#49 = APPROVAL_ROLE ( '' ) ;
#50 = PERSON_AND_ORGANIZATION_ROLE ( 'classification_officer' ) ;
#51 = AXIS2_PLACEMENT_3D ( 'NONE', #45, #144, #41 ) ;
#52 = EDGE_CURVE ( 'NONE', #197, #197, #15, .T. ) ;
#53 = DIRECTION ( 'NONE',  ( 4.275831445896958607E-31, 1.000000000000000000, 1.224646799147353207E-16 ) ) ;
#54 = CLOSED_SHELL ( 'NONE', ( #201, #109, #155, #192 ) ) ;
#55 = CC_DESIGN_DATE_AND_TIME_ASSIGNMENT ( #66, #153, ( #139 ) ) ;
#56 = VERTEX_POINT ( 'NONE', #125 ) ;
#57 = DIRECTION ( 'NONE',  ( 0.0000000000000000000, 1.000000000000000000, 0.0000000000000000000 ) ) ;
#58 =( NAMED_UNIT ( * ) PLANE_ANGLE_UNIT ( ) SI_UNIT ( $, .RADIAN. ) );
#59 = PRODUCT_DEFINITION_SHAPE ( 'NONE', 'NONE',  #139 ) ;
#60 = EDGE_LOOP ( 'NONE', ( #42 ) ) ;
#61 = CARTESIAN_POINT ( 'NONE',  ( 6.982962677686266711E-14, 2.249639673992778475E-32, 20.00000000000000000 ) ) ;
#62 = CC_DESIGN_PERSON_AND_ORGANIZATION_ASSIGNMENT ( #165, #14, ( #191 ) ) ;
#63 = ORIENTED_EDGE ( 'NONE', *, *, #162, .F. ) ;
#64 = APPROVAL_STATUS ( 'not_yet_approved' ) ;
#65 = AXIS2_PLACEMENT_3D ( 'NONE', #202, #95, #119 ) ;
#66 = DATE_AND_TIME ( #31, #74 ) ;
#67 = CARTESIAN_POINT ( 'NONE',  ( 0.0000000000000000000, 0.0000000000000000000, 0.0000000000000000000 ) ) ;
#68 = COORDINATED_UNIVERSAL_TIME_OFFSET ( 1, 0, .AHEAD. ) ;
#69 = PRODUCT_RELATED_PRODUCT_CATEGORY ( 'detail', '', ( #183 ) ) ;
#70 = AXIS2_PLACEMENT_3D ( 'NONE', #72, #102, #194 ) ;
#71 = CARTESIAN_POINT ( 'NONE',  ( 6.982962677686266711E-14, 2.249639673992778475E-32, 20.00000000000000000 ) ) ;
#72 = CARTESIAN_POINT ( 'NONE',  ( 6.982962677686266711E-14, -2.449293598294706513E-15, 20.00000000000000000 ) ) ;
#73 = CC_DESIGN_PERSON_AND_ORGANIZATION_ASSIGNMENT ( #136, #28, ( #183 ) ) ;
#74 = LOCAL_TIME ( 9, 40, 32.00000000000000000, #169 ) ;
#75 = FACE_OUTER_BOUND ( 'NONE', #126, .T. ) ;
#76 = CARTESIAN_POINT ( 'NONE',  ( -1.710329175656009201E-30, 5.999027195572725858E-32, -4.898577450861327128E-16 ) ) ;
#77 = AXIS2_PLACEMENT_3D ( 'NONE', #76, #123, #181 ) ;
#78 = ORIENTED_EDGE ( 'NONE', *, *, #137, .T. ) ;
#79 = ORGANIZATION ( 'UNSPECIFIED', 'UNSPECIFIED', '' ) ;
#80 = PERSON_AND_ORGANIZATION_ROLE ( 'creator' ) ;
#81 = CYLINDRICAL_SURFACE ( 'NONE', #145, 2.999999999999992450 ) ;
#82 = APPROVAL_STATUS ( 'not_yet_approved' ) ;
#83 = DATE_AND_TIME ( #94, #16 ) ;
#84 = APPROVAL_STATUS ( 'not_yet_approved' ) ;
#85 = SHAPE_DEFINITION_REPRESENTATION ( #59, #20 ) ;
#86 = DIRECTION ( 'NONE',  ( 3.491481338843133355E-15, -1.224646799147353207E-16, 1.000000000000000000 ) ) ;
#87 = CIRCLE ( 'NONE', #77, 2.999999999999990674 ) ;
#88 = FACE_OUTER_BOUND ( 'NONE', #151, .T. ) ;
#89 = VERTEX_POINT ( 'NONE', #122 ) ;
#90 = PLANE ( 'NONE',  #171 ) ;
#91 = FACE_OUTER_BOUND ( 'NONE', #60, .T. ) ;
#92 = AXIS2_PLACEMENT_3D ( 'NONE', #157, #199, #57 ) ;
#93 = PERSON_AND_ORGANIZATION ( #188, #79 ) ;
#94 = CALENDAR_DATE ( 2021, 8, 12 ) ;
#95 = DIRECTION ( 'NONE',  ( -3.491481338843133355E-15, 1.224646799147353207E-16, -1.000000000000000000 ) ) ;
#96 = PERSON_AND_ORGANIZATION ( #188, #79 ) ;
#97 = APPROVAL_DATE_TIME ( #116, #159 ) ;
#98 = DIRECTION ( 'NONE',  ( -3.491481338843133355E-15, 1.224646799147353207E-16, -1.000000000000000000 ) ) ;
#99 = DIRECTION ( 'NONE',  ( -4.275831445896958607E-31, -1.000000000000000000, -1.224646799147353207E-16 ) ) ;
#100 = CC_DESIGN_SECURITY_CLASSIFICATION ( #37, ( #191 ) ) ;
#101 = PLANE ( 'NONE',  #19 ) ;
#102 = DIRECTION ( 'NONE',  ( -3.491481338843133355E-15, 1.224646799147353207E-16, -1.000000000000000000 ) ) ;
#103 = DIRECTION ( 'NONE',  ( -3.491481338843133355E-15, 1.224646799147353207E-16, -1.000000000000000000 ) ) ;
#104 = DIRECTION ( 'NONE',  ( -4.275831445896958607E-31, -1.000000000000000000, -1.224646799147353207E-16 ) ) ;
#105 = EDGE_CURVE ( 'NONE', #24, #24, #87, .T. ) ;
#106 = APPROVAL_PERSON_ORGANIZATION ( #93, #198, #203 ) ;
#107 = APPLICATION_PROTOCOL_DEFINITION ( 'international standard', 'config_control_design', 1994, #127 ) ;
#108 = CLOSED_SHELL ( 'NONE', ( #29, #25, #38 ) ) ;
#109 = ADVANCED_FACE ( 'NONE', ( #75, #195 ), #142, .T. ) ;
#110 = DIRECTION ( 'NONE',  ( -3.491481338843133355E-15, 1.224646799147353207E-16, -1.000000000000000000 ) ) ;
#111 = DATE_AND_TIME ( #175, #120 ) ;
#112 = ORIENTED_EDGE ( 'NONE', *, *, #137, .F. ) ;
#113 = LOCAL_TIME ( 9, 40, 32.00000000000000000, #167 ) ;
#114 = ORIENTED_EDGE ( 'NONE', *, *, #162, .T. ) ;
#115 = COORDINATED_UNIVERSAL_TIME_OFFSET ( 1, 0, .AHEAD. ) ;
#116 = DATE_AND_TIME ( #17, #118 ) ;
#117 = CC_DESIGN_PERSON_AND_ORGANIZATION_ASSIGNMENT ( #150, #3, ( #139 ) ) ;
#118 = LOCAL_TIME ( 9, 40, 32.00000000000000000, #115 ) ;
#119 = DIRECTION ( 'NONE',  ( 0.0000000000000000000, 1.000000000000000000, 0.0000000000000000000 ) ) ;
#120 = LOCAL_TIME ( 9, 40, 32.00000000000000000, #68 ) ;
#121 = DIRECTION ( 'NONE',  ( -3.491481338843133355E-15, 1.224646799147353207E-16, -1.000000000000000000 ) ) ;
#122 = CARTESIAN_POINT ( 'NONE',  ( 2.094888803305880013E-13, 2.399999999999994138, 60.00000000000000000 ) ) ;
#123 = DIRECTION ( 'NONE',  ( -3.491481338843133355E-15, 1.224646799147353207E-16, -1.000000000000000000 ) ) ;
#124 = CC_DESIGN_PERSON_AND_ORGANIZATION_ASSIGNMENT ( #13, #50, ( #37 ) ) ;
#125 = CARTESIAN_POINT ( 'NONE',  ( 6.982962677686266711E-14, 2.999999999999992006, 20.00000000000000000 ) ) ;
#126 = EDGE_LOOP ( 'NONE', ( #63 ) ) ;
#127 = APPLICATION_CONTEXT ( 'configuration controlled 3d designs of mechanical parts and assemblies' ) ;
#128 = CARTESIAN_POINT ( 'NONE',  ( 2.094888803305880013E-13, 1.799711739194219277E-32, 60.00000000000000000 ) ) ;
#129 = CC_DESIGN_PERSON_AND_ORGANIZATION_ASSIGNMENT ( #187, #80, ( #191 ) ) ;
#130 = DATE_AND_TIME ( #132, #113 ) ;
#131 = ORIENTED_EDGE ( 'NONE', *, *, #52, .T. ) ;
#132 = CALENDAR_DATE ( 2021, 8, 12 ) ;
#133 = AXIS2_PLACEMENT_3D ( 'NONE', #196, #121, #18 ) ;
#134 = CC_DESIGN_APPROVAL ( #159, ( #37 ) ) ;
#135 = FACE_OUTER_BOUND ( 'NONE', #46, .T. ) ;
#136 = PERSON_AND_ORGANIZATION ( #188, #79 ) ;
#137 = EDGE_CURVE ( 'NONE', #10, #10, #36, .T. ) ;
#138 = APPROVAL_ROLE ( '' ) ;
#139 = PRODUCT_DEFINITION ( 'UNKNOWN', '', #191, #48 ) ;
#140 = AXIS2_PLACEMENT_3D ( 'NONE', #61, #27, #104 ) ;
#141 = APPLICATION_CONTEXT ( 'configuration controlled 3d designs of mechanical parts and assemblies' ) ;
#142 = CYLINDRICAL_SURFACE ( 'NONE', #133, 2.999999999999997780 ) ;
#143 = FACE_BOUND ( 'NONE', #11, .T. ) ;
#144 = DIRECTION ( 'NONE',  ( 0.0000000000000000000, 0.0000000000000000000, 1.000000000000000000 ) ) ;
#145 = AXIS2_PLACEMENT_3D ( 'NONE', #67, #98, #53 ) ;
#146 = EDGE_LOOP ( 'NONE', ( #114 ) ) ;
#147 = DIRECTION ( 'NONE',  ( 0.0000000000000000000, 1.000000000000000000, 0.0000000000000000000 ) ) ;
#148 = MECHANICAL_CONTEXT ( 'NONE', #127, 'mechanical' ) ;
#149 =( GEOMETRIC_REPRESENTATION_CONTEXT ( 3 ) GLOBAL_UNCERTAINTY_ASSIGNED_CONTEXT ( ( #7 ) ) GLOBAL_UNIT_ASSIGNED_CONTEXT ( ( #12, #58, #40 ) ) REPRESENTATION_CONTEXT ( 'NONE', 'WORKASPACE' ) );
#150 = PERSON_AND_ORGANIZATION ( #188, #79 ) ;
#151 = EDGE_LOOP ( 'NONE', ( #112 ) ) ;
#152 = APPROVAL_DATE_TIME ( #111, #4 ) ;
#153 = DATE_TIME_ROLE ( 'creation_date' ) ;
#154 = AXIS2_PLACEMENT_3D ( 'NONE', #184, #44, #147 ) ;
#155 = ADVANCED_FACE ( 'NONE', ( #88, #143 ), #21, .T. ) ;
#156 = APPROVAL_PERSON_ORGANIZATION ( #177, #159, #49 ) ;
#157 = CARTESIAN_POINT ( 'NONE',  ( 2.094888803305880013E-13, -7.347880794884118356E-15, 60.00000000000000000 ) ) ;
#158 = DIRECTION ( 'NONE',  ( 4.275831445896958607E-31, 1.000000000000000000, 1.224646799147353207E-16 ) ) ;
#159 = APPROVAL ( #84, 'UNSPECIFIED' ) ;
#160 = CIRCLE ( 'NONE', #65, 2.400000000000001688 ) ;
#161 = CARTESIAN_POINT ( 'NONE',  ( 6.982962677686266711E-14, 2.999999999999992006, 20.00000000000000000 ) ) ;
#162 = EDGE_CURVE ( 'NONE', #56, #56, #168, .T. ) ;
#163 = FACE_OUTER_BOUND ( 'NONE', #30, .T. ) ;
#164 = CC_DESIGN_APPROVAL ( #198, ( #191 ) ) ;
#165 = PERSON_AND_ORGANIZATION ( #188, #79 ) ;
#166 = ORIENTED_EDGE ( 'NONE', *, *, #105, .T. ) ;
#167 = COORDINATED_UNIVERSAL_TIME_OFFSET ( 1, 0, .AHEAD. ) ;
#168 = CIRCLE ( 'NONE', #154, 2.999999999999994227 ) ;
#169 = COORDINATED_UNIVERSAL_TIME_OFFSET ( 1, 0, .AHEAD. ) ;
#170 = CARTESIAN_POINT ( 'NONE',  ( -8.551645878280046007E-31, 2.999513597786362929E-32, -2.449288725430663564E-16 ) ) ;
#171 = AXIS2_PLACEMENT_3D ( 'NONE', #128, #110, #158 ) ;
#172 = EDGE_LOOP ( 'NONE', ( #26 ) ) ;
#173 = ORIENTED_EDGE ( 'NONE', *, *, #178, .F. ) ;
#174 = FACE_OUTER_BOUND ( 'NONE', #185, .T. ) ;
#175 = CALENDAR_DATE ( 2021, 8, 12 ) ;
#176 = APPROVAL_DATE_TIME ( #130, #198 ) ;
#177 = PERSON_AND_ORGANIZATION ( #188, #79 ) ;
#178 = EDGE_CURVE ( 'NONE', #89, #89, #160, .T. ) ;
#179 = FACE_OUTER_BOUND ( 'NONE', #172, .T. ) ;
#180 = CARTESIAN_POINT ( 'NONE',  ( 2.073939915272820834E-13, -7.274401986935278213E-15, 59.39999999999999147 ) ) ;
#181 = DIRECTION ( 'NONE',  ( 4.275831445896958607E-31, 1.000000000000000000, 1.224646799147353207E-16 ) ) ;
#182 = AXIS2_PLACEMENT_3D ( 'NONE', #180, #103, #22 ) ;
#183 = PRODUCT ( '372614', '372614', '', ( #148 ) ) ;
#184 = CARTESIAN_POINT ( 'NONE',  ( 6.982962677686266711E-14, -2.449293598294706513E-15, 20.00000000000000000 ) ) ;
#185 = EDGE_LOOP ( 'NONE', ( #173 ) ) ;
#186 = FACE_OUTER_BOUND ( 'NONE', #146, .T. ) ;
#187 = PERSON_AND_ORGANIZATION ( #188, #79 ) ;
#188 = PERSON ( 'UNSPECIFIED', 'UNSPECIFIED', 'UNSPECIFIED', ('UNSPECIFIED'), ('UNSPECIFIED'), ('UNSPECIFIED') ) ;
#189 = DATE_TIME_ROLE ( 'classification_date' ) ;
#190 = DIRECTION ( 'NONE',  ( -4.275831445896958607E-31, -1.000000000000000000, -1.224646799147353207E-16 ) ) ;
#191 = PRODUCT_DEFINITION_FORMATION_WITH_SPECIFIED_SOURCE ( 'ANY', '', #183, .NOT_KNOWN. ) ;
#192 = ADVANCED_FACE ( 'NONE', ( #174 ), #90, .F. ) ;
#193 = DIRECTION ( 'NONE',  ( 3.491481338843133355E-15, -1.224646799147353207E-16, 1.000000000000000000 ) ) ;
#194 = DIRECTION ( 'NONE',  ( 0.0000000000000000000, 1.000000000000000000, 0.0000000000000000000 ) ) ;
#195 = FACE_OUTER_BOUND ( 'NONE', #32, .T. ) ;
#196 = CARTESIAN_POINT ( 'NONE',  ( 0.0000000000000000000, 0.0000000000000000000, 0.0000000000000000000 ) ) ;
#197 = VERTEX_POINT ( 'NONE', #161 ) ;
#198 = APPROVAL ( #64, 'UNSPECIFIED' ) ;
#199 = DIRECTION ( 'NONE',  ( -3.491481338843133355E-15, 1.224646799147353207E-16, -1.000000000000000000 ) ) ;
#200 = ORIENTED_EDGE ( 'NONE', *, *, #178, .T. ) ;
#201 = ADVANCED_FACE ( 'NONE', ( #186 ), #39, .F. ) ;
#202 = CARTESIAN_POINT ( 'NONE',  ( 2.094888803305880013E-13, -7.347880794884118356E-15, 60.00000000000000000 ) ) ;
#203 = APPROVAL_ROLE ( '' ) ;
ENDSEC;
END-ISO-10303-21;
