ISO-10303-21;
HEADER;
FILE_DESCRIPTION (( 'STEP AP203' ),
    '1' );
FILE_NAME ('372613.step',
    '2021-12-08T08:40:32',
    ( '' ),
    ( '' ),
    'SwSTEP 2.0',
    'SolidWorks 2019',
    '' );
FILE_SCHEMA (( 'CONFIG_CONTROL_DESIGN' ));
ENDSEC;

DATA;
#1 = APPROVAL_PERSON_ORGANIZATION ( #172, #183, #70 ) ;
#2 = CARTESIAN_POINT ( 'NONE',  ( 6.982962677686266711E-14, 2.999999999999990674, 20.00000000000000000 ) ) ;
#3 = EDGE_LOOP ( 'NONE', ( #56 ) ) ;
#4 = CYLINDRICAL_SURFACE ( 'NONE', #134, 2.999999999999992006 ) ;
#5 = ORIENTED_EDGE ( 'NONE', *, *, #100, .F. ) ;
#6 = DIRECTION ( 'NONE',  ( 3.491481338843133355E-15, -1.224646799147353207E-16, 1.000000000000000000 ) ) ;
#7 = PERSON_AND_ORGANIZATION ( #146, #79 ) ;
#8 = PLANE ( 'NONE',  #59 ) ;
#9 = PLANE ( 'NONE',  #28 ) ;
#10 = AXIS2_PLACEMENT_3D ( 'NONE', #25, #137, #78 ) ;
#11 = APPROVAL_PERSON_ORGANIZATION ( #44, #62, #169 ) ;
#12 = APPROVAL_DATE_TIME ( #154, #62 ) ;
#13 = CARTESIAN_POINT ( 'NONE',  ( 1.745740669421566678E-13, 2.399999999999990585, 50.00000000000000000 ) ) ;
#14 = CARTESIAN_POINT ( 'NONE',  ( 0.0000000000000000000, 0.0000000000000000000, 0.0000000000000000000 ) ) ;
#15 = APPLICATION_CONTEXT ( 'configuration controlled 3d designs of mechanical parts and assemblies' ) ;
#16 = DIRECTION ( 'NONE',  ( -3.491481338843133355E-15, 1.224646799147353207E-16, -1.000000000000000000 ) ) ;
#17 = DIRECTION ( 'NONE',  ( 0.0000000000000000000, 1.000000000000000000, 0.0000000000000000000 ) ) ;
#18 = PRODUCT_DEFINITION_SHAPE ( 'NONE', 'NONE',  #93 ) ;
#19 = DIRECTION ( 'NONE',  ( 0.0000000000000000000, 1.000000000000000000, 0.0000000000000000000 ) ) ;
#20 = EDGE_LOOP ( 'NONE', ( #85 ) ) ;
#21 = CARTESIAN_POINT ( 'NONE',  ( -8.551623707117314956E-31, 2.999505821189315008E-32, -2.449282375357276977E-16 ) ) ;
#22 = PERSON_AND_ORGANIZATION ( #146, #79 ) ;
#23 = CARTESIAN_POINT ( 'NONE',  ( 0.0000000000000000000, 0.0000000000000000000, 0.0000000000000000000 ) ) ;
#24 = CC_DESIGN_PERSON_AND_ORGANIZATION_ASSIGNMENT ( #186, #47, ( #51 ) ) ;
#25 = CARTESIAN_POINT ( 'NONE',  ( 6.982962677686266711E-14, -2.449293598294706513E-15, 20.00000000000000000 ) ) ;
#26 = CALENDAR_DATE ( 2021, 8, 12 ) ;
#27 = AXIS2_PLACEMENT_3D ( 'NONE', #119, #133, #175 ) ;
#28 = AXIS2_PLACEMENT_3D ( 'NONE', #182, #42, #165 ) ;
#29 = ADVANCED_FACE ( 'NONE', ( #102, #123 ), #4, .T. ) ;
#30 = VERTEX_POINT ( 'NONE', #173 ) ;
#31 = PERSON_AND_ORGANIZATION_ROLE ( 'creator' ) ;
#32 = ADVANCED_FACE ( 'NONE', ( #163 ), #149, .F. ) ;
#33 = VERTEX_POINT ( 'NONE', #2 ) ;
#34 = VERTEX_POINT ( 'NONE', #13 ) ;
#35 = DIRECTION ( 'NONE',  ( 4.275831445896958607E-31, 1.000000000000000000, 1.224646799147353207E-16 ) ) ;
#36 = FACE_OUTER_BOUND ( 'NONE', #164, .T. ) ;
#37 = CIRCLE ( 'NONE', #168, 2.399999999999996803 ) ;
#38 = DIRECTION ( 'NONE',  ( -3.491481338843133355E-15, 1.224646799147353207E-16, -1.000000000000000000 ) ) ;
#39 = ORIENTED_EDGE ( 'NONE', *, *, #68, .F. ) ;
#40 = EDGE_LOOP ( 'NONE', ( #73 ) ) ;
#41 = CARTESIAN_POINT ( 'NONE',  ( 1.745740669421566678E-13, -6.123233995736766085E-15, 50.00000000000000000 ) ) ;
#42 = DIRECTION ( 'NONE',  ( 3.491481338843133355E-15, -1.224646799147353207E-16, 1.000000000000000000 ) ) ;
#43 = AXIS2_PLACEMENT_3D ( 'NONE', #21, #6, #161 ) ;
#44 = PERSON_AND_ORGANIZATION ( #146, #79 ) ;
#45 = CIRCLE ( 'NONE', #10, 2.999999999999993339 ) ;
#46 = CC_DESIGN_SECURITY_CLASSIFICATION ( #61, ( #101 ) ) ;
#47 = PERSON_AND_ORGANIZATION_ROLE ( 'design_owner' ) ;
#48 = DIRECTION ( 'NONE',  ( 4.275831445896959482E-31, 1.000000000000000000, 1.224646799147353207E-16 ) ) ;
#49 = APPROVAL_DATE_TIME ( #142, #183 ) ;
#50 = DATE_AND_TIME ( #187, #191 ) ;
#51 = PRODUCT ( '372613', '372613', '', ( #82 ) ) ;
#52 = PLANE ( 'NONE',  #27 ) ;
#53 = CC_DESIGN_PERSON_AND_ORGANIZATION_ASSIGNMENT ( #157, #31, ( #93 ) ) ;
#54 = FACE_BOUND ( 'NONE', #40, .T. ) ;
#55 = CLOSED_SHELL ( 'NONE', ( #127, #193, #139, #90 ) ) ;
#56 = ORIENTED_EDGE ( 'NONE', *, *, #197, .T. ) ;
#57 = SECURITY_CLASSIFICATION_LEVEL ( 'unclassified' ) ;
#58 = FACE_OUTER_BOUND ( 'NONE', #20, .T. ) ;
#59 = AXIS2_PLACEMENT_3D ( 'NONE', #76, #124, #180 ) ;
#60 = COORDINATED_UNIVERSAL_TIME_OFFSET ( 1, 0, .AHEAD. ) ;
#61 = SECURITY_CLASSIFICATION ( '', '', #57 ) ;
#62 = APPROVAL ( #112, 'UNSPECIFIED' ) ;
#63 = ADVANCED_BREP_SHAPE_REPRESENTATION ( '372613', ( #81, #148, #111 ), #160 ) ;
#64 = COORDINATED_UNIVERSAL_TIME_OFFSET ( 1, 0, .AHEAD. ) ;
#65 = CALENDAR_DATE ( 2021, 8, 12 ) ;
#66 = CONICAL_SURFACE ( 'NONE', #122, 2.399999999999996803, 0.7853981633974453924 ) ;
#67 = APPLICATION_PROTOCOL_DEFINITION ( 'international standard', 'config_control_design', 1994, #15 ) ;
#68 = EDGE_CURVE ( 'NONE', #117, #117, #167, .T. ) ;
#69 =( NAMED_UNIT ( * ) SI_UNIT ( $, .STERADIAN. ) SOLID_ANGLE_UNIT ( ) );
#70 = APPROVAL_ROLE ( '' ) ;
#71 = EDGE_LOOP ( 'NONE', ( #89 ) ) ;
#72 = COORDINATED_UNIVERSAL_TIME_OFFSET ( 1, 0, .AHEAD. ) ;
#73 = ORIENTED_EDGE ( 'NONE', *, *, #100, .T. ) ;
#74 = FACE_OUTER_BOUND ( 'NONE', #145, .T. ) ;
#75 = ORIENTED_EDGE ( 'NONE', *, *, #68, .T. ) ;
#76 = CARTESIAN_POINT ( 'NONE',  ( 1.745740669421566678E-13, 1.799711739194217634E-32, 50.00000000000000000 ) ) ;
#77 = APPROVAL_DATE_TIME ( #181, #113 ) ;
#78 = DIRECTION ( 'NONE',  ( 0.0000000000000000000, 1.000000000000000000, 0.0000000000000000000 ) ) ;
#79 = ORGANIZATION ( 'UNSPECIFIED', 'UNSPECIFIED', '' ) ;
#80 = CC_DESIGN_PERSON_AND_ORGANIZATION_ASSIGNMENT ( #162, #195, ( #61 ) ) ;
#81 = MANIFOLD_SOLID_BREP ( 'Corps-Déplacer/Copier1[1]', #55 ) ;
#82 = MECHANICAL_CONTEXT ( 'NONE', #15, 'mechanical' ) ;
#83 = PERSON_AND_ORGANIZATION ( #146, #79 ) ;
#84 =( NAMED_UNIT ( * ) PLANE_ANGLE_UNIT ( ) SI_UNIT ( $, .RADIAN. ) );
#85 = ORIENTED_EDGE ( 'NONE', *, *, #156, .F. ) ;
#86 = AXIS2_PLACEMENT_3D ( 'NONE', #196, #16, #48 ) ;
#87 = ORIENTED_EDGE ( 'NONE', *, *, #171, .F. ) ;
#88 = EDGE_LOOP ( 'NONE', ( #147 ) ) ;
#89 = ORIENTED_EDGE ( 'NONE', *, *, #171, .T. ) ;
#90 = ADVANCED_FACE ( 'NONE', ( #74 ), #8, .F. ) ;
#91 = DIRECTION ( 'NONE',  ( -3.491481338843133355E-15, 1.224646799147353207E-16, -1.000000000000000000 ) ) ;
#92 = FACE_OUTER_BOUND ( 'NONE', #135, .T. ) ;
#93 = PRODUCT_DEFINITION ( 'UNKNOWN', '', #101, #128 ) ;
#94 = LOCAL_TIME ( 9, 40, 32.00000000000000000, #203 ) ;
#95 = AXIS2_PLACEMENT_3D ( 'NONE', #97, #99, #35 ) ;
#96 = COORDINATED_UNIVERSAL_TIME_OFFSET ( 1, 0, .AHEAD. ) ;
#97 = CARTESIAN_POINT ( 'NONE',  ( -1.710324741423462991E-30, 5.999011642378630015E-32, -4.898564750714553954E-16 ) ) ;
#98 = VERTEX_POINT ( 'NONE', #114 ) ;
#99 = DIRECTION ( 'NONE',  ( -3.491481338843133355E-15, 1.224646799147353207E-16, -1.000000000000000000 ) ) ;
#100 = EDGE_CURVE ( 'NONE', #34, #34, #37, .T. ) ;
#101 = PRODUCT_DEFINITION_FORMATION_WITH_SPECIFIED_SOURCE ( 'ANY', '', #51, .NOT_KNOWN. ) ;
#102 = FACE_OUTER_BOUND ( 'NONE', #188, .T. ) ;
#103 = AXIS2_PLACEMENT_3D ( 'NONE', #176, #38, #104 ) ;
#104 = DIRECTION ( 'NONE',  ( 0.0000000000000000000, 1.000000000000000000, 0.0000000000000000000 ) ) ;
#105 = PERSON_AND_ORGANIZATION_ROLE ( 'design_supplier' ) ;
#106 = DIRECTION ( 'NONE',  ( -3.491481338843133355E-15, 1.224646799147353207E-16, -1.000000000000000000 ) ) ;
#107 = APPROVAL_ROLE ( '' ) ;
#108 = SHAPE_DEFINITION_REPRESENTATION ( #18, #63 ) ;
#109 = CC_DESIGN_PERSON_AND_ORGANIZATION_ASSIGNMENT ( #7, #105, ( #101 ) ) ;
#110 = UNCERTAINTY_MEASURE_WITH_UNIT (LENGTH_MEASURE( 1.000000000000000082E-05 ), #115, 'distance_accuracy_value', 'NONE');
#111 = AXIS2_PLACEMENT_3D ( 'NONE', #14, #155, #170 ) ;
#112 = APPROVAL_STATUS ( 'not_yet_approved' ) ;
#113 = APPROVAL ( #184, 'UNSPECIFIED' ) ;
#114 = CARTESIAN_POINT ( 'NONE',  ( -4.275753076543795256E-31, 2.999999999999990674, -1.224624353272505919E-16 ) ) ;
#115 =( LENGTH_UNIT ( ) NAMED_UNIT ( * ) SI_UNIT ( .MILLI., .METRE. ) );
#116 = CC_DESIGN_DATE_AND_TIME_ASSIGNMENT ( #50, #118, ( #93 ) ) ;
#117 = VERTEX_POINT ( 'NONE', #174 ) ;
#118 = DATE_TIME_ROLE ( 'creation_date' ) ;
#119 = CARTESIAN_POINT ( 'NONE',  ( 6.982962677686266711E-14, 2.249639673992777380E-32, 20.00000000000000000 ) ) ;
#120 = CC_DESIGN_APPROVAL ( #183, ( #93 ) ) ;
#121 = CARTESIAN_POINT ( 'NONE',  ( 1.745740669421566678E-13, -6.123233995736766085E-15, 50.00000000000000000 ) ) ;
#122 = AXIS2_PLACEMENT_3D ( 'NONE', #121, #159, #19 ) ;
#123 = FACE_OUTER_BOUND ( 'NONE', #71, .T. ) ;
#124 = DIRECTION ( 'NONE',  ( -3.491481338843133355E-15, 1.224646799147353207E-16, -1.000000000000000000 ) ) ;
#125 = FACE_OUTER_BOUND ( 'NONE', #192, .T. ) ;
#126 = DATE_TIME_ROLE ( 'classification_date' ) ;
#127 = ADVANCED_FACE ( 'NONE', ( #129 ), #52, .F. ) ;
#128 = DESIGN_CONTEXT ( 'detailed design', #198, 'design' ) ;
#129 = FACE_OUTER_BOUND ( 'NONE', #88, .T. ) ;
#130 = CALENDAR_DATE ( 2021, 8, 12 ) ;
#131 = ORIENTED_EDGE ( 'NONE', *, *, #197, .F. ) ;
#132 = PRODUCT_RELATED_PRODUCT_CATEGORY ( 'detail', '', ( #51 ) ) ;
#133 = DIRECTION ( 'NONE',  ( 3.491481338843133355E-15, -1.224646799147353207E-16, 1.000000000000000000 ) ) ;
#134 = AXIS2_PLACEMENT_3D ( 'NONE', #23, #91, #143 ) ;
#135 = EDGE_LOOP ( 'NONE', ( #75 ) ) ;
#136 = CARTESIAN_POINT ( 'NONE',  ( 1.724791781388508004E-13, -6.049755187787925154E-15, 49.39999999999999858 ) ) ;
#137 = DIRECTION ( 'NONE',  ( -3.491481338843133355E-15, 1.224646799147353207E-16, -1.000000000000000000 ) ) ;
#138 = APPROVAL_PERSON_ORGANIZATION ( #22, #113, #107 ) ;
#139 = ADVANCED_FACE ( 'NONE', ( #36, #54 ), #66, .T. ) ;
#140 = APPLICATION_PROTOCOL_DEFINITION ( 'international standard', 'config_control_design', 1994, #198 ) ;
#141 = PERSON_AND_ORGANIZATION_ROLE ( 'creator' ) ;
#142 = DATE_AND_TIME ( #199, #94 ) ;
#143 = DIRECTION ( 'NONE',  ( 4.275831445896958607E-31, 1.000000000000000000, 1.224646799147353207E-16 ) ) ;
#144 = CC_DESIGN_DATE_AND_TIME_ASSIGNMENT ( #189, #126, ( #61 ) ) ;
#145 = EDGE_LOOP ( 'NONE', ( #5 ) ) ;
#146 = PERSON ( 'UNSPECIFIED', 'UNSPECIFIED', 'UNSPECIFIED', ('UNSPECIFIED'), ('UNSPECIFIED'), ('UNSPECIFIED') ) ;
#147 = ORIENTED_EDGE ( 'NONE', *, *, #156, .T. ) ;
#148 = MANIFOLD_SOLID_BREP ( 'Corps-Déplacer/Copier1[2]', #177 ) ;
#149 = PLANE ( 'NONE',  #43 ) ;
#150 = CYLINDRICAL_SURFACE ( 'NONE', #86, 2.999999999999994671 ) ;
#151 = CIRCLE ( 'NONE', #103, 2.999999999999993339 ) ;
#152 = CC_DESIGN_APPROVAL ( #113, ( #61 ) ) ;
#153 = CC_DESIGN_PERSON_AND_ORGANIZATION_ASSIGNMENT ( #83, #141, ( #101 ) ) ;
#154 = DATE_AND_TIME ( #65, #202 ) ;
#155 = DIRECTION ( 'NONE',  ( 0.0000000000000000000, 0.0000000000000000000, 1.000000000000000000 ) ) ;
#156 = EDGE_CURVE ( 'NONE', #33, #33, #151, .T. ) ;
#157 = PERSON_AND_ORGANIZATION ( #146, #79 ) ;
#158 = ADVANCED_FACE ( 'NONE', ( #125 ), #9, .T. ) ;
#159 = DIRECTION ( 'NONE',  ( -3.491481338843133355E-15, 1.224646799147353207E-16, -1.000000000000000000 ) ) ;
#160 =( GEOMETRIC_REPRESENTATION_CONTEXT ( 3 ) GLOBAL_UNCERTAINTY_ASSIGNED_CONTEXT ( ( #110 ) ) GLOBAL_UNIT_ASSIGNED_CONTEXT ( ( #115, #84, #69 ) ) REPRESENTATION_CONTEXT ( 'NONE', 'WORKASPACE' ) );
#161 = DIRECTION ( 'NONE',  ( -4.275831445896958607E-31, -1.000000000000000000, -1.224646799147353207E-16 ) ) ;
#162 = PERSON_AND_ORGANIZATION ( #146, #79 ) ;
#163 = FACE_OUTER_BOUND ( 'NONE', #3, .T. ) ;
#164 = EDGE_LOOP ( 'NONE', ( #39 ) ) ;
#165 = DIRECTION ( 'NONE',  ( -4.275831445896958607E-31, -1.000000000000000000, -1.224646799147353207E-16 ) ) ;
#166 = LOCAL_TIME ( 9, 40, 32.00000000000000000, #72 ) ;
#167 = CIRCLE ( 'NONE', #201, 2.999999999999996447 ) ;
#168 = AXIS2_PLACEMENT_3D ( 'NONE', #41, #106, #17 ) ;
#169 = APPROVAL_ROLE ( '' ) ;
#170 = DIRECTION ( 'NONE',  ( 1.000000000000000000, 0.0000000000000000000, 0.0000000000000000000 ) ) ;
#171 = EDGE_CURVE ( 'NONE', #30, #30, #45, .T. ) ;
#172 = PERSON_AND_ORGANIZATION ( #146, #79 ) ;
#173 = CARTESIAN_POINT ( 'NONE',  ( 6.982962677686266711E-14, 2.999999999999990674, 20.00000000000000000 ) ) ;
#174 = CARTESIAN_POINT ( 'NONE',  ( 1.724791781388508004E-13, 2.999999999999990674, 49.39999999999999858 ) ) ;
#175 = DIRECTION ( 'NONE',  ( -4.275831445896958607E-31, -1.000000000000000000, -1.224646799147353207E-16 ) ) ;
#176 = CARTESIAN_POINT ( 'NONE',  ( 6.982962677686266711E-14, -2.449293598294706513E-15, 20.00000000000000000 ) ) ;
#177 = CLOSED_SHELL ( 'NONE', ( #32, #29, #158 ) ) ;
#178 = CC_DESIGN_APPROVAL ( #62, ( #101 ) ) ;
#179 = DIRECTION ( 'NONE',  ( 0.0000000000000000000, 1.000000000000000000, 0.0000000000000000000 ) ) ;
#180 = DIRECTION ( 'NONE',  ( 4.275831445896958607E-31, 1.000000000000000000, 1.224646799147353207E-16 ) ) ;
#181 = DATE_AND_TIME ( #26, #194 ) ;
#182 = CARTESIAN_POINT ( 'NONE',  ( 6.982962677686266711E-14, 2.249639673992777380E-32, 20.00000000000000000 ) ) ;
#183 = APPROVAL ( #200, 'UNSPECIFIED' ) ;
#184 = APPROVAL_STATUS ( 'not_yet_approved' ) ;
#185 = CIRCLE ( 'NONE', #95, 2.999999999999990674 ) ;
#186 = PERSON_AND_ORGANIZATION ( #146, #79 ) ;
#187 = CALENDAR_DATE ( 2021, 8, 12 ) ;
#188 = EDGE_LOOP ( 'NONE', ( #131 ) ) ;
#189 = DATE_AND_TIME ( #130, #166 ) ;
#190 = DIRECTION ( 'NONE',  ( -3.491481338843133355E-15, 1.224646799147353207E-16, -1.000000000000000000 ) ) ;
#191 = LOCAL_TIME ( 9, 40, 32.00000000000000000, #64 ) ;
#192 = EDGE_LOOP ( 'NONE', ( #87 ) ) ;
#193 = ADVANCED_FACE ( 'NONE', ( #58, #92 ), #150, .T. ) ;
#194 = LOCAL_TIME ( 9, 40, 32.00000000000000000, #60 ) ;
#195 = PERSON_AND_ORGANIZATION_ROLE ( 'classification_officer' ) ;
#196 = CARTESIAN_POINT ( 'NONE',  ( 0.0000000000000000000, 0.0000000000000000000, 0.0000000000000000000 ) ) ;
#197 = EDGE_CURVE ( 'NONE', #98, #98, #185, .T. ) ;
#198 = APPLICATION_CONTEXT ( 'configuration controlled 3d designs of mechanical parts and assemblies' ) ;
#199 = CALENDAR_DATE ( 2021, 8, 12 ) ;
#200 = APPROVAL_STATUS ( 'not_yet_approved' ) ;
#201 = AXIS2_PLACEMENT_3D ( 'NONE', #136, #190, #179 ) ;
#202 = LOCAL_TIME ( 9, 40, 32.00000000000000000, #96 ) ;
#203 = COORDINATED_UNIVERSAL_TIME_OFFSET ( 1, 0, .AHEAD. ) ;
ENDSEC;
END-ISO-10303-21;
