ISO-10303-21;
HEADER;
FILE_DESCRIPTION (( 'STEP AP203' ),
    '1' );
FILE_NAME ('372612.step',
    '2021-12-08T08:40:31',
    ( '' ),
    ( '' ),
    'SwSTEP 2.0',
    'SolidWorks 2019',
    '' );
FILE_SCHEMA (( 'CONFIG_CONTROL_DESIGN' ));
ENDSEC;

DATA;
#1 = ORGANIZATION ( 'UNSPECIFIED', 'UNSPECIFIED', '' ) ;
#2 = PERSON_AND_ORGANIZATION_ROLE ( 'creator' ) ;
#3 = DIRECTION ( 'NONE',  ( -4.275831445896958607E-31, -1.000000000000000000, -1.224646799147353207E-16 ) ) ;
#4 = MANIFOLD_SOLID_BREP ( 'Corps-Déplacer/Copier1[1]', #46 ) ;
#5 = CARTESIAN_POINT ( 'NONE',  ( 2.775727664380290576E-13, 3.999999999999993339, 79.49999999999998579 ) ) ;
#6 = DIRECTION ( 'NONE',  ( 3.491481338843133355E-15, -1.276467311168695266E-16, 1.000000000000000000 ) ) ;
#7 =( LENGTH_UNIT ( ) NAMED_UNIT ( * ) SI_UNIT ( .MILLI., .METRE. ) );
#8 = EDGE_CURVE ( 'NONE', #55, #55, #111, .T. ) ;
#9 = CARTESIAN_POINT ( 'NONE',  ( 8.728703347107833388E-14, 2.999519565323707552E-32, 25.00000000000000000 ) ) ;
#10 = PRODUCT_DEFINITION_FORMATION_WITH_SPECIFIED_SOURCE ( 'ANY', '', #181, .NOT_KNOWN. ) ;
#11 = PRODUCT_RELATED_PRODUCT_CATEGORY ( 'detail', '', ( #181 ) ) ;
#12 = CIRCLE ( 'NONE', #142, 4.000000000000002665 ) ;
#13 = PERSON_AND_ORGANIZATION_ROLE ( 'design_supplier' ) ;
#14 = PRODUCT_DEFINITION ( 'UNKNOWN', '', #10, #41 ) ;
#15 = EDGE_LOOP ( 'NONE', ( #73 ) ) ;
#16 = APPROVAL_STATUS ( 'not_yet_approved' ) ;
#17 = CARTESIAN_POINT ( 'NONE',  ( 8.728703347107833388E-14, -2.500000000000000444, 25.00000000000000000 ) ) ;
#18 = APPROVAL ( #201, 'UNSPECIFIED' ) ;
#19 = APPLICATION_CONTEXT ( 'configuration controlled 3d designs of mechanical parts and assemblies' ) ;
#20 = FACE_OUTER_BOUND ( 'NONE', #15, .T. ) ;
#21 = CARTESIAN_POINT ( 'NONE',  ( -9.046517534590797963E-32, -2.499999999999996891, -2.591025601067159308E-17 ) ) ;
#22 =( NAMED_UNIT ( * ) PLANE_ANGLE_UNIT ( ) SI_UNIT ( $, .RADIAN. ) );
#23 = DIRECTION ( 'NONE',  ( 0.0000000000000000000, 1.000000000000000000, 0.0000000000000000000 ) ) ;
#24 = AXIS2_PLACEMENT_3D ( 'NONE', #86, #54, #189 ) ;
#25 = CONICAL_SURFACE ( 'NONE', #63, 3.500000000000002665, 0.7853981633974339571 ) ;
#26 = DATE_AND_TIME ( #184, #135 ) ;
#27 = CALENDAR_DATE ( 2021, 8, 12 ) ;
#28 = DATE_TIME_ROLE ( 'classification_date' ) ;
#29 = CARTESIAN_POINT ( 'NONE',  ( 1.068326120964400576E-13, -3.905744406844097492E-15, 30.59807621135330535 ) ) ;
#30 = SHAPE_DEFINITION_REPRESENTATION ( #38, #173 ) ;
#31 = ORIENTED_EDGE ( 'NONE', *, *, #8, .F. ) ;
#32 = DIRECTION ( 'NONE',  ( -4.275831445896958607E-31, -1.000000000000000000, -1.224646799147353207E-16 ) ) ;
#33 =( GEOMETRIC_REPRESENTATION_CONTEXT ( 3 ) GLOBAL_UNCERTAINTY_ASSIGNED_CONTEXT ( ( #90 ) ) GLOBAL_UNIT_ASSIGNED_CONTEXT ( ( #7, #22, #58 ) ) REPRESENTATION_CONTEXT ( 'NONE', 'WORKASPACE' ) );
#34 = VERTEX_POINT ( 'NONE', #17 ) ;
#35 = CYLINDRICAL_SURFACE ( 'NONE', #179, 2.499999999999996891 ) ;
#36 = FACE_BOUND ( 'NONE', #97, .T. ) ;
#37 = DIRECTION ( 'NONE',  ( 3.491481338843133355E-15, -1.276467311168695266E-16, 1.000000000000000000 ) ) ;
#38 = PRODUCT_DEFINITION_SHAPE ( 'NONE', 'NONE',  #14 ) ;
#39 = EDGE_CURVE ( 'NONE', #188, #188, #12, .T. ) ;
#40 = PERSON_AND_ORGANIZATION_ROLE ( 'classification_officer' ) ;
#41 = DESIGN_CONTEXT ( 'detailed design', #197, 'design' ) ;
#42 = ORIENTED_EDGE ( 'NONE', *, *, #52, .F. ) ;
#43 = PERSON_AND_ORGANIZATION ( #102, #1 ) ;
#44 = DIRECTION ( 'NONE',  ( 0.0000000000000000000, 1.000000000000000000, 0.0000000000000000000 ) ) ;
#45 = APPROVAL_ROLE ( '' ) ;
#46 = CLOSED_SHELL ( 'NONE', ( #185, #92, #109, #76, #204 ) ) ;
#47 = PERSON_AND_ORGANIZATION ( #102, #1 ) ;
#48 = ADVANCED_FACE ( 'NONE', ( #218 ), #64, .T. ) ;
#49 = PERSON_AND_ORGANIZATION ( #102, #1 ) ;
#50 = FACE_OUTER_BOUND ( 'NONE', #62, .T. ) ;
#51 = DIRECTION ( 'NONE',  ( 0.0000000000000000000, -1.000000000000000000, 0.0000000000000000000 ) ) ;
#52 = EDGE_CURVE ( 'NONE', #108, #108, #164, .T. ) ;
#53 = AXIS2_PLACEMENT_3D ( 'NONE', #29, #100, #171 ) ;
#54 = DIRECTION ( 'NONE',  ( -3.491481338843133355E-15, 1.224646799147353207E-16, -1.000000000000000000 ) ) ;
#55 = VERTEX_POINT ( 'NONE', #21 ) ;
#56 = DIRECTION ( 'NONE',  ( -4.456761796588771413E-31, -1.000000000000000000, -1.276467311168695266E-16 ) ) ;
#57 = EDGE_CURVE ( 'NONE', #34, #34, #178, .T. ) ;
#58 =( NAMED_UNIT ( * ) SI_UNIT ( $, .STERADIAN. ) SOLID_ANGLE_UNIT ( ) );
#59 = CC_DESIGN_APPROVAL ( #18, ( #10 ) ) ;
#60 = EDGE_LOOP ( 'NONE', ( #153 ) ) ;
#61 = APPROVAL_DATE_TIME ( #67, #18 ) ;
#62 = EDGE_LOOP ( 'NONE', ( #103 ) ) ;
#63 = AXIS2_PLACEMENT_3D ( 'NONE', #161, #68, #138 ) ;
#64 = PLANE ( 'NONE',  #89 ) ;
#65 = DIRECTION ( 'NONE',  ( 1.000000000000000000, 0.0000000000000000000, 0.0000000000000000000 ) ) ;
#66 = ADVANCED_FACE ( 'NONE', ( #158 ), #82, .F. ) ;
#67 = DATE_AND_TIME ( #81, #193 ) ;
#68 = DIRECTION ( 'NONE',  ( -3.491481338843133355E-15, 1.224646799147353207E-16, -1.000000000000000000 ) ) ;
#69 = APPROVAL_PERSON_ORGANIZATION ( #47, #149, #80 ) ;
#70 = FACE_BOUND ( 'NONE', #99, .T. ) ;
#71 = DIRECTION ( 'NONE',  ( 3.491481338843133355E-15, -1.224646799147353207E-16, 1.000000000000000000 ) ) ;
#72 = DIRECTION ( 'NONE',  ( -3.491481338843133355E-15, 1.224646799147353207E-16, -1.000000000000000000 ) ) ;
#73 = ORIENTED_EDGE ( 'NONE', *, *, #39, .F. ) ;
#74 = MANIFOLD_SOLID_BREP ( 'Corps-Déplacer/Copier1[2]', #96 ) ;
#75 = CARTESIAN_POINT ( 'NONE',  ( 1.524389622222840165E-13, -5.573088707662931173E-15, 43.66025403784431802 ) ) ;
#76 = ADVANCED_FACE ( 'NONE', ( #36, #174 ), #134, .T. ) ;
#77 = AXIS2_PLACEMENT_3D ( 'NONE', #98, #136, #65 ) ;
#78 = PERSON_AND_ORGANIZATION ( #102, #1 ) ;
#79 = DIRECTION ( 'NONE',  ( 3.491481338843133355E-15, -1.276467311168695266E-16, 1.000000000000000000 ) ) ;
#80 = APPROVAL_ROLE ( '' ) ;
#81 = CALENDAR_DATE ( 2021, 8, 12 ) ;
#82 = PLANE ( 'NONE',  #123 ) ;
#83 = AXIS2_PLACEMENT_3D ( 'NONE', #9, #159, #32 ) ;
#84 = DIRECTION ( 'NONE',  ( 3.491481338843133355E-15, -1.276467311168695266E-16, 1.000000000000000000 ) ) ;
#85 = CARTESIAN_POINT ( 'NONE',  ( -6.413839710158237013E-31, 0.0000000000000000000, -1.836996703606440502E-16 ) ) ;
#86 = CARTESIAN_POINT ( 'NONE',  ( 2.793185071074506684E-13, 2.624579619658238224E-32, 80.00000000000000000 ) ) ;
#87 = APPROVAL_PERSON_ORGANIZATION ( #43, #88, #45 ) ;
#88 = APPROVAL ( #207, 'UNSPECIFIED' ) ;
#89 = AXIS2_PLACEMENT_3D ( 'NONE', #205, #118, #186 ) ;
#90 = UNCERTAINTY_MEASURE_WITH_UNIT (LENGTH_MEASURE( 1.000000000000000082E-05 ), #7, 'distance_accuracy_value', 'NONE');
#91 = ORIENTED_EDGE ( 'NONE', *, *, #52, .T. ) ;
#92 = ADVANCED_FACE ( 'NONE', ( #20, #70 ), #25, .T. ) ;
#93 = ORIENTED_EDGE ( 'NONE', *, *, #8, .T. ) ;
#94 = DATE_TIME_ROLE ( 'creation_date' ) ;
#95 = CC_DESIGN_PERSON_AND_ORGANIZATION_ASSIGNMENT ( #137, #165, ( #181 ) ) ;
#96 = CLOSED_SHELL ( 'NONE', ( #48, #163, #66 ) ) ;
#97 = EDGE_LOOP ( 'NONE', ( #133 ) ) ;
#98 = CARTESIAN_POINT ( 'NONE',  ( 0.0000000000000000000, 0.0000000000000000000, 0.0000000000000000000 ) ) ;
#99 = EDGE_LOOP ( 'NONE', ( #151 ) ) ;
#100 = DIRECTION ( 'NONE',  ( -3.491481338843133355E-15, 1.276467311168695266E-16, -1.000000000000000000 ) ) ;
#101 = LOCAL_TIME ( 9, 40, 31.00000000000000000, #117 ) ;
#102 = PERSON ( 'UNSPECIFIED', 'UNSPECIFIED', 'UNSPECIFIED', ('UNSPECIFIED'), ('UNSPECIFIED'), ('UNSPECIFIED') ) ;
#103 = ORIENTED_EDGE ( 'NONE', *, *, #39, .T. ) ;
#104 = FACE_OUTER_BOUND ( 'NONE', #60, .T. ) ;
#105 = CIRCLE ( 'NONE', #191, 3.500000000000002665 ) ;
#106 = DIRECTION ( 'NONE',  ( 0.0000000000000000000, -1.000000000000000000, 0.0000000000000000000 ) ) ;
#107 = CC_DESIGN_APPROVAL ( #149, ( #166 ) ) ;
#108 = VERTEX_POINT ( 'NONE', #139 ) ;
#109 = ADVANCED_FACE ( 'NONE', ( #104 ), #208, .F. ) ;
#110 = FACE_OUTER_BOUND ( 'NONE', #127, .T. ) ;
#111 = CIRCLE ( 'NONE', #190, 2.499999999999996891 ) ;
#112 = VERTEX_POINT ( 'NONE', #212 ) ;
#113 = CC_DESIGN_PERSON_AND_ORGANIZATION_ASSIGNMENT ( #49, #2, ( #10 ) ) ;
#114 = CIRCLE ( 'NONE', #175, 2.499999999999997335 ) ;
#115 = APPROVAL_ROLE ( '' ) ;
#116 = DATE_AND_TIME ( #27, #122 ) ;
#117 = COORDINATED_UNIVERSAL_TIME_OFFSET ( 1, 0, .AHEAD. ) ;
#118 = DIRECTION ( 'NONE',  ( 3.491481338843133355E-15, -1.224646799147353207E-16, 1.000000000000000000 ) ) ;
#119 = APPROVAL_DATE_TIME ( #154, #149 ) ;
#120 = COORDINATED_UNIVERSAL_TIME_OFFSET ( 1, 0, .AHEAD. ) ;
#121 = DIRECTION ( 'NONE',  ( -3.491481338843133355E-15, 1.224646799147353207E-16, -1.000000000000000000 ) ) ;
#122 = LOCAL_TIME ( 9, 40, 31.00000000000000000, #156 ) ;
#123 = AXIS2_PLACEMENT_3D ( 'NONE', #143, #71, #3 ) ;
#124 = CARTESIAN_POINT ( 'NONE',  ( 0.0000000000000000000, 0.0000000000000000000, 0.0000000000000000000 ) ) ;
#125 = CC_DESIGN_DATE_AND_TIME_ASSIGNMENT ( #206, #94, ( #14 ) ) ;
#126 = PLANE ( 'NONE',  #83 ) ;
#127 = EDGE_LOOP ( 'NONE', ( #198 ) ) ;
#128 = FACE_OUTER_BOUND ( 'NONE', #167, .T. ) ;
#129 = APPLICATION_PROTOCOL_DEFINITION ( 'international standard', 'config_control_design', 1994, #19 ) ;
#130 = EDGE_LOOP ( 'NONE', ( #31 ) ) ;
#131 = CC_DESIGN_SECURITY_CLASSIFICATION ( #166, ( #10 ) ) ;
#132 = PERSON_AND_ORGANIZATION ( #102, #1 ) ;
#133 = ORIENTED_EDGE ( 'NONE', *, *, #57, .T. ) ;
#134 = CONICAL_SURFACE ( 'NONE', #162, 7.499999999999997335, 0.2617993877991502960 ) ;
#135 = LOCAL_TIME ( 9, 40, 31.00000000000000000, #180 ) ;
#136 = DIRECTION ( 'NONE',  ( 0.0000000000000000000, 0.0000000000000000000, 1.000000000000000000 ) ) ;
#137 = PERSON_AND_ORGANIZATION ( #102, #1 ) ;
#138 = DIRECTION ( 'NONE',  ( 0.0000000000000000000, 1.000000000000000000, 0.0000000000000000000 ) ) ;
#139 = CARTESIAN_POINT ( 'NONE',  ( 1.068326120964400576E-13, -4.000000000000004441, 30.59807621135330535 ) ) ;
#140 = CYLINDRICAL_SURFACE ( 'NONE', #215, 4.000000000000000000 ) ;
#141 = EDGE_CURVE ( 'NONE', #112, #112, #105, .T. ) ;
#142 = AXIS2_PLACEMENT_3D ( 'NONE', #150, #168, #44 ) ;
#143 = CARTESIAN_POINT ( 'NONE',  ( -6.413786353522005134E-31, 2.249653418127174030E-32, -1.836981421658449264E-16 ) ) ;
#144 = LOCAL_TIME ( 9, 40, 31.00000000000000000, #120 ) ;
#145 = ORIENTED_EDGE ( 'NONE', *, *, #216, .T. ) ;
#146 = FACE_OUTER_BOUND ( 'NONE', #213, .T. ) ;
#147 = CC_DESIGN_PERSON_AND_ORGANIZATION_ASSIGNMENT ( #183, #13, ( #10 ) ) ;
#148 = COORDINATED_UNIVERSAL_TIME_OFFSET ( 1, 0, .AHEAD. ) ;
#149 = APPROVAL ( #16, 'UNSPECIFIED' ) ;
#150 = CARTESIAN_POINT ( 'NONE',  ( 2.775727664380290576E-13, -9.735942053221456900E-15, 79.49999999999998579 ) ) ;
#151 = ORIENTED_EDGE ( 'NONE', *, *, #141, .T. ) ;
#152 = CALENDAR_DATE ( 2021, 8, 12 ) ;
#153 = ORIENTED_EDGE ( 'NONE', *, *, #141, .F. ) ;
#154 = DATE_AND_TIME ( #152, #144 ) ;
#155 = CARTESIAN_POINT ( 'NONE',  ( 1.023725273801283385E-30, -6.087552285867516400E-32, 2.932065717815018504E-16 ) ) ;
#156 = COORDINATED_UNIVERSAL_TIME_OFFSET ( 1, 0, .AHEAD. ) ;
#157 = CC_DESIGN_DATE_AND_TIME_ASSIGNMENT ( #26, #28, ( #166 ) ) ;
#158 = FACE_OUTER_BOUND ( 'NONE', #130, .T. ) ;
#159 = DIRECTION ( 'NONE',  ( 3.491481338843133355E-15, -1.224646799147353207E-16, 1.000000000000000000 ) ) ;
#160 = FACE_OUTER_BOUND ( 'NONE', #195, .T. ) ;
#161 = CARTESIAN_POINT ( 'NONE',  ( 2.793185071074506684E-13, -9.797174393178826052E-15, 80.00000000000000000 ) ) ;
#162 = AXIS2_PLACEMENT_3D ( 'NONE', #75, #37, #51 ) ;
#163 = ADVANCED_FACE ( 'NONE', ( #146, #110 ), #35, .T. ) ;
#164 = CIRCLE ( 'NONE', #53, 4.000000000000000000 ) ;
#165 = PERSON_AND_ORGANIZATION_ROLE ( 'design_owner' ) ;
#166 = SECURITY_CLASSIFICATION ( '', '', #223 ) ;
#167 = EDGE_LOOP ( 'NONE', ( #42 ) ) ;
#168 = DIRECTION ( 'NONE',  ( -3.491481338843133355E-15, 1.224646799147353207E-16, -1.000000000000000000 ) ) ;
#169 = CALENDAR_DATE ( 2021, 8, 12 ) ;
#170 = CC_DESIGN_PERSON_AND_ORGANIZATION_ASSIGNMENT ( #219, #217, ( #14 ) ) ;
#171 = DIRECTION ( 'NONE',  ( 0.0000000000000000000, -1.000000000000000000, 0.0000000000000000000 ) ) ;
#172 = DIRECTION ( 'NONE',  ( -4.456761796588771413E-31, -1.000000000000000000, -1.276467311168695266E-16 ) ) ;
#173 = ADVANCED_BREP_SHAPE_REPRESENTATION ( '372612', ( #4, #74, #77 ), #33 ) ;
#174 = FACE_OUTER_BOUND ( 'NONE', #182, .T. ) ;
#175 = AXIS2_PLACEMENT_3D ( 'NONE', #192, #196, #106 ) ;
#176 = DIRECTION ( 'NONE',  ( 0.0000000000000000000, -1.000000000000000000, 0.0000000000000000000 ) ) ;
#177 = VERTEX_POINT ( 'NONE', #209 ) ;
#178 = CIRCLE ( 'NONE', #220, 2.499999999999997335 ) ;
#179 = AXIS2_PLACEMENT_3D ( 'NONE', #85, #84, #56 ) ;
#180 = COORDINATED_UNIVERSAL_TIME_OFFSET ( 1, 0, .AHEAD. ) ;
#181 = PRODUCT ( '372612', '372612', '', ( #203 ) ) ;
#182 = EDGE_LOOP ( 'NONE', ( #91 ) ) ;
#183 = PERSON_AND_ORGANIZATION ( #102, #1 ) ;
#184 = CALENDAR_DATE ( 2021, 8, 12 ) ;
#185 = ADVANCED_FACE ( 'NONE', ( #50, #128 ), #140, .T. ) ;
#186 = DIRECTION ( 'NONE',  ( -4.275831445896958607E-31, -1.000000000000000000, -1.224646799147353207E-16 ) ) ;
#187 = APPROVAL_DATE_TIME ( #116, #88 ) ;
#188 = VERTEX_POINT ( 'NONE', #5 ) ;
#189 = DIRECTION ( 'NONE',  ( 4.275831445896958607E-31, 1.000000000000000000, 1.224646799147353207E-16 ) ) ;
#190 = AXIS2_PLACEMENT_3D ( 'NONE', #155, #79, #172 ) ;
#191 = AXIS2_PLACEMENT_3D ( 'NONE', #214, #72, #23 ) ;
#192 = CARTESIAN_POINT ( 'NONE',  ( 8.728703347107833388E-14, -3.191168277921738509E-15, 25.00000000000000000 ) ) ;
#193 = LOCAL_TIME ( 9, 40, 31.00000000000000000, #148 ) ;
#194 = CARTESIAN_POINT ( 'NONE',  ( 8.728703347107833388E-14, -3.191168277921738509E-15, 25.00000000000000000 ) ) ;
#195 = EDGE_LOOP ( 'NONE', ( #221 ) ) ;
#196 = DIRECTION ( 'NONE',  ( 3.491481338843133355E-15, -1.276467311168695266E-16, 1.000000000000000000 ) ) ;
#197 = APPLICATION_CONTEXT ( 'configuration controlled 3d designs of mechanical parts and assemblies' ) ;
#198 = ORIENTED_EDGE ( 'NONE', *, *, #216, .F. ) ;
#199 = EDGE_LOOP ( 'NONE', ( #145 ) ) ;
#200 = CC_DESIGN_PERSON_AND_ORGANIZATION_ASSIGNMENT ( #132, #40, ( #166 ) ) ;
#201 = APPROVAL_STATUS ( 'not_yet_approved' ) ;
#202 = APPLICATION_PROTOCOL_DEFINITION ( 'international standard', 'config_control_design', 1994, #197 ) ;
#203 = MECHANICAL_CONTEXT ( 'NONE', #19, 'mechanical' ) ;
#204 = ADVANCED_FACE ( 'NONE', ( #160 ), #126, .F. ) ;
#205 = CARTESIAN_POINT ( 'NONE',  ( 8.728703347107833388E-14, 2.999519565323707552E-32, 25.00000000000000000 ) ) ;
#206 = DATE_AND_TIME ( #169, #101 ) ;
#207 = APPROVAL_STATUS ( 'not_yet_approved' ) ;
#208 = PLANE ( 'NONE',  #24 ) ;
#209 = CARTESIAN_POINT ( 'NONE',  ( 8.728703347107833388E-14, -2.500000000000000444, 25.00000000000000000 ) ) ;
#210 = CC_DESIGN_APPROVAL ( #88, ( #14 ) ) ;
#211 = DIRECTION ( 'NONE',  ( 4.275831445896958607E-31, 1.000000000000000000, 1.224646799147353207E-16 ) ) ;
#212 = CARTESIAN_POINT ( 'NONE',  ( 2.793185071074506684E-13, 3.499999999999992895, 80.00000000000000000 ) ) ;
#213 = EDGE_LOOP ( 'NONE', ( #93 ) ) ;
#214 = CARTESIAN_POINT ( 'NONE',  ( 2.793185071074506684E-13, -9.797174393178826052E-15, 80.00000000000000000 ) ) ;
#215 = AXIS2_PLACEMENT_3D ( 'NONE', #124, #121, #211 ) ;
#216 = EDGE_CURVE ( 'NONE', #177, #177, #114, .T. ) ;
#217 = PERSON_AND_ORGANIZATION_ROLE ( 'creator' ) ;
#218 = FACE_OUTER_BOUND ( 'NONE', #199, .T. ) ;
#219 = PERSON_AND_ORGANIZATION ( #102, #1 ) ;
#220 = AXIS2_PLACEMENT_3D ( 'NONE', #194, #6, #176 ) ;
#221 = ORIENTED_EDGE ( 'NONE', *, *, #57, .F. ) ;
#222 = APPROVAL_PERSON_ORGANIZATION ( #78, #18, #115 ) ;
#223 = SECURITY_CLASSIFICATION_LEVEL ( 'unclassified' ) ;
ENDSEC;
END-ISO-10303-21;
