ISO-10303-21;
HEADER;
FILE_DESCRIPTION (( 'STEP AP203' ),
    '1' );
FILE_NAME ('372611.step',
    '2021-12-08T08:40:30',
    ( '' ),
    ( '' ),
    'SwSTEP 2.0',
    'SolidWorks 2019',
    '' );
FILE_SCHEMA (( 'CONFIG_CONTROL_DESIGN' ));
ENDSEC;

DATA;
#1 = DIRECTION ( 'NONE',  ( 3.491481338843133355E-15, -1.276467311168695266E-16, 1.000000000000000000 ) ) ;
#2 = DESIGN_CONTEXT ( 'detailed design', #34, 'design' ) ;
#3 = DATE_AND_TIME ( #154, #27 ) ;
#4 = EDGE_CURVE ( 'NONE', #112, #112, #206, .T. ) ;
#5 = DATE_AND_TIME ( #184, #94 ) ;
#6 = AXIS2_PLACEMENT_3D ( 'NONE', #9, #158, #138 ) ;
#7 = PERSON_AND_ORGANIZATION ( #159, #162 ) ;
#8 = AXIS2_PLACEMENT_3D ( 'NONE', #191, #107, #45 ) ;
#9 = CARTESIAN_POINT ( 'NONE',  ( 2.077431396611664157E-13, -7.286648454926750781E-15, 59.50000000000000000 ) ) ;
#10 = CC_DESIGN_PERSON_AND_ORGANIZATION_ASSIGNMENT ( #91, #23, ( #167 ) ) ;
#11 = DIRECTION ( 'NONE',  ( -3.491481338843133355E-15, 1.224646799147353207E-16, -1.000000000000000000 ) ) ;
#12 = ORIENTED_EDGE ( 'NONE', *, *, #66, .F. ) ;
#13 = AXIS2_PLACEMENT_3D ( 'NONE', #179, #161, #102 ) ;
#14 = CARTESIAN_POINT ( 'NONE',  ( -5.344808899709470047E-31, 1.874706600394511987E-32, -1.530814110402897908E-16 ) ) ;
#15 = FACE_OUTER_BOUND ( 'NONE', #173, .T. ) ;
#16 = EDGE_CURVE ( 'NONE', #115, #115, #50, .T. ) ;
#17 = AXIS2_PLACEMENT_3D ( 'NONE', #18, #19, #148 ) ;
#18 = CARTESIAN_POINT ( 'NONE',  ( -6.413839710158237013E-31, 0.0000000000000000000, -1.836996703606440502E-16 ) ) ;
#19 = DIRECTION ( 'NONE',  ( 3.491481338843133355E-15, -1.276467311168695266E-16, 1.000000000000000000 ) ) ;
#20 = AXIS2_PLACEMENT_3D ( 'NONE', #70, #164, #163 ) ;
#21 = ADVANCED_FACE ( 'NONE', ( #63, #121 ), #28, .T. ) ;
#22 = APPROVAL_DATE_TIME ( #104, #105 ) ;
#23 = PERSON_AND_ORGANIZATION_ROLE ( 'creator' ) ;
#24 = APPLICATION_CONTEXT ( 'configuration controlled 3d designs of mechanical parts and assemblies' ) ;
#25 = SHAPE_DEFINITION_REPRESENTATION ( #212, #185 ) ;
#26 = EDGE_LOOP ( 'NONE', ( #170 ) ) ;
#27 = LOCAL_TIME ( 9, 40, 30.00000000000000000, #106 ) ;
#28 = CYLINDRICAL_SURFACE ( 'NONE', #53, 2.999999999999996447 ) ;
#29 = APPROVAL ( #77, 'UNSPECIFIED' ) ;
#30 = CLOSED_SHELL ( 'NONE', ( #177, #198, #134 ) ) ;
#31 = ORIENTED_EDGE ( 'NONE', *, *, #4, .T. ) ;
#32 = CONICAL_SURFACE ( 'NONE', #20, 2.499999999999998668, 0.7853981633974479459 ) ;
#33 = DIRECTION ( 'NONE',  ( -3.491481338843133355E-15, 1.224646799147353207E-16, -1.000000000000000000 ) ) ;
#34 = APPLICATION_CONTEXT ( 'configuration controlled 3d designs of mechanical parts and assemblies' ) ;
#35 = FACE_BOUND ( 'NONE', #68, .T. ) ;
#36 = DIRECTION ( 'NONE',  ( -4.275831445896958607E-31, -1.000000000000000000, -1.224646799147353207E-16 ) ) ;
#37 = AXIS2_PLACEMENT_3D ( 'NONE', #150, #33, #201 ) ;
#38 = VERTEX_POINT ( 'NONE', #176 ) ;
#39 = CYLINDRICAL_SURFACE ( 'NONE', #17, 2.499999999999996891 ) ;
#40 = APPROVAL_ROLE ( '' ) ;
#41 = PERSON_AND_ORGANIZATION_ROLE ( 'design_owner' ) ;
#42 = CC_DESIGN_DATE_AND_TIME_ASSIGNMENT ( #78, #59, ( #194 ) ) ;
#43 = APPROVAL_STATUS ( 'not_yet_approved' ) ;
#44 = EDGE_LOOP ( 'NONE', ( #31 ) ) ;
#45 = DIRECTION ( 'NONE',  ( 1.000000000000000000, 0.0000000000000000000, 0.0000000000000000000 ) ) ;
#46 = DIRECTION ( 'NONE',  ( 3.491481338843133355E-15, -1.276467311168695266E-16, 1.000000000000000000 ) ) ;
#47 = PERSON_AND_ORGANIZATION_ROLE ( 'design_supplier' ) ;
#48 = AXIS2_PLACEMENT_3D ( 'NONE', #128, #200, #223 ) ;
#49 = ORIENTED_EDGE ( 'NONE', *, *, #97, .T. ) ;
#50 = CIRCLE ( 'NONE', #6, 2.999999999999998668 ) ;
#51 = CONICAL_SURFACE ( 'NONE', #79, 7.499999999999997335, 0.2617993877991502960 ) ;
#52 = FACE_OUTER_BOUND ( 'NONE', #210, .T. ) ;
#53 = AXIS2_PLACEMENT_3D ( 'NONE', #190, #11, #82 ) ;
#54 = DIRECTION ( 'NONE',  ( -4.275831445896958607E-31, -1.000000000000000000, -1.224646799147353207E-16 ) ) ;
#55 = DIRECTION ( 'NONE',  ( -4.456761796588771413E-31, -1.000000000000000000, -1.276467311168695266E-16 ) ) ;
#56 = CARTESIAN_POINT ( 'NONE',  ( 8.728703347107833388E-14, -2.500000000000000444, 25.00000000000000000 ) ) ;
#57 = DIRECTION ( 'NONE',  ( 3.491481338843133355E-15, -1.224646799147353207E-16, 1.000000000000000000 ) ) ;
#58 = PERSON_AND_ORGANIZATION ( #159, #162 ) ;
#59 = DATE_TIME_ROLE ( 'creation_date' ) ;
#60 = ADVANCED_FACE ( 'NONE', ( #174, #35 ), #32, .T. ) ;
#61 = CALENDAR_DATE ( 2021, 8, 12 ) ;
#62 =( NAMED_UNIT ( * ) SI_UNIT ( $, .STERADIAN. ) SOLID_ANGLE_UNIT ( ) );
#63 = FACE_OUTER_BOUND ( 'NONE', #96, .T. ) ;
#64 = SECURITY_CLASSIFICATION_LEVEL ( 'unclassified' ) ;
#65 = CIRCLE ( 'NONE', #13, 2.999999999999996447 ) ;
#66 = EDGE_CURVE ( 'NONE', #114, #114, #213, .T. ) ;
#67 = CC_DESIGN_DATE_AND_TIME_ASSIGNMENT ( #3, #92, ( #116 ) ) ;
#68 = EDGE_LOOP ( 'NONE', ( #49 ) ) ;
#69 = EDGE_LOOP ( 'NONE', ( #109 ) ) ;
#70 = CARTESIAN_POINT ( 'NONE',  ( 2.094888803305880013E-13, -7.347880794884118356E-15, 60.00000000000000000 ) ) ;
#71 = APPROVAL ( #43, 'UNSPECIFIED' ) ;
#72 = FACE_OUTER_BOUND ( 'NONE', #44, .T. ) ;
#73 = CARTESIAN_POINT ( 'NONE',  ( 1.524389622222840165E-13, -5.573088707662931173E-15, 43.66025403784431802 ) ) ;
#74 = EDGE_CURVE ( 'NONE', #181, #181, #65, .T. ) ;
#75 = DIRECTION ( 'NONE',  ( 0.0000000000000000000, -1.000000000000000000, 0.0000000000000000000 ) ) ;
#76 = CC_DESIGN_APPROVAL ( #105, ( #167 ) ) ;
#77 = APPROVAL_STATUS ( 'not_yet_approved' ) ;
#78 = DATE_AND_TIME ( #204, #140 ) ;
#79 = AXIS2_PLACEMENT_3D ( 'NONE', #73, #1, #75 ) ;
#80 = APPROVAL_ROLE ( '' ) ;
#81 = COORDINATED_UNIVERSAL_TIME_OFFSET ( 1, 0, .AHEAD. ) ;
#82 = DIRECTION ( 'NONE',  ( 4.275831445896958607E-31, 1.000000000000000000, 1.224646799147353207E-16 ) ) ;
#83 = LOCAL_TIME ( 9, 40, 30.00000000000000000, #207 ) ;
#84 = ORIENTED_EDGE ( 'NONE', *, *, #16, .F. ) ;
#85 = AXIS2_PLACEMENT_3D ( 'NONE', #130, #57, #86 ) ;
#86 = DIRECTION ( 'NONE',  ( -4.275831445896958607E-31, -1.000000000000000000, -1.224646799147353207E-16 ) ) ;
#87 = PLANE ( 'NONE',  #85 ) ;
#88 = FACE_BOUND ( 'NONE', #26, .T. ) ;
#89 = DIRECTION ( 'NONE',  ( 3.491481338843133355E-15, -1.276467311168695266E-16, 1.000000000000000000 ) ) ;
#90 = COORDINATED_UNIVERSAL_TIME_OFFSET ( 1, 0, .AHEAD. ) ;
#91 = PERSON_AND_ORGANIZATION ( #159, #162 ) ;
#92 = DATE_TIME_ROLE ( 'classification_date' ) ;
#93 = CARTESIAN_POINT ( 'NONE',  ( 8.728703347107833388E-14, -3.191168277921738509E-15, 25.00000000000000000 ) ) ;
#94 = LOCAL_TIME ( 9, 40, 30.00000000000000000, #118 ) ;
#95 = CC_DESIGN_PERSON_AND_ORGANIZATION_ASSIGNMENT ( #171, #41, ( #152 ) ) ;
#96 = EDGE_LOOP ( 'NONE', ( #145 ) ) ;
#97 = EDGE_CURVE ( 'NONE', #38, #38, #124, .T. ) ;
#98 = VERTEX_POINT ( 'NONE', #131 ) ;
#99 = DIRECTION ( 'NONE',  ( 3.491481338843133355E-15, -1.276467311168695266E-16, 1.000000000000000000 ) ) ;
#100 = PLANE ( 'NONE',  #193 ) ;
#101 = AXIS2_PLACEMENT_3D ( 'NONE', #93, #46, #157 ) ;
#102 = DIRECTION ( 'NONE',  ( 0.0000000000000000000, -1.000000000000000000, 0.0000000000000000000 ) ) ;
#103 = PLANE ( 'NONE',  #180 ) ;
#104 = DATE_AND_TIME ( #139, #216 ) ;
#105 = APPROVAL ( #155, 'UNSPECIFIED' ) ;
#106 = COORDINATED_UNIVERSAL_TIME_OFFSET ( 1, 0, .AHEAD. ) ;
#107 = DIRECTION ( 'NONE',  ( 0.0000000000000000000, 0.0000000000000000000, 1.000000000000000000 ) ) ;
#108 = PERSON_AND_ORGANIZATION ( #159, #162 ) ;
#109 = ORIENTED_EDGE ( 'NONE', *, *, #4, .F. ) ;
#110 = UNCERTAINTY_MEASURE_WITH_UNIT (LENGTH_MEASURE( 1.000000000000000082E-05 ), #218, 'distance_accuracy_value', 'NONE');
#111 = APPROVAL_PERSON_ORGANIZATION ( #108, #29, #187 ) ;
#112 = VERTEX_POINT ( 'NONE', #160 ) ;
#113 = CARTESIAN_POINT ( 'NONE',  ( 1.023725273801283385E-30, -6.087552285867516400E-32, 2.932065717815018504E-16 ) ) ;
#114 = VERTEX_POINT ( 'NONE', #56 ) ;
#115 = VERTEX_POINT ( 'NONE', #182 ) ;
#116 = SECURITY_CLASSIFICATION ( '', '', #64 ) ;
#117 = DIRECTION ( 'NONE',  ( 3.491481338843133355E-15, -1.224646799147353207E-16, 1.000000000000000000 ) ) ;
#118 = COORDINATED_UNIVERSAL_TIME_OFFSET ( 1, 0, .AHEAD. ) ;
#119 = ORIENTED_EDGE ( 'NONE', *, *, #149, .T. ) ;
#120 = APPLICATION_PROTOCOL_DEFINITION ( 'international standard', 'config_control_design', 1994, #34 ) ;
#121 = FACE_OUTER_BOUND ( 'NONE', #217, .T. ) ;
#122 = PERSON_AND_ORGANIZATION ( #159, #162 ) ;
#123 = ORIENTED_EDGE ( 'NONE', *, *, #74, .F. ) ;
#124 = CIRCLE ( 'NONE', #48, 2.499999999999998668 ) ;
#125 = CC_DESIGN_APPROVAL ( #29, ( #194 ) ) ;
#126 = ORIENTED_EDGE ( 'NONE', *, *, #97, .F. ) ;
#127 = CARTESIAN_POINT ( 'NONE',  ( 8.728703347107833388E-14, 2.249639673992777654E-32, 25.00000000000000000 ) ) ;
#128 = CARTESIAN_POINT ( 'NONE',  ( 2.094888803305880013E-13, -7.347880794884118356E-15, 60.00000000000000000 ) ) ;
#129 = PLANE ( 'NONE',  #37 ) ;
#130 = CARTESIAN_POINT ( 'NONE',  ( 8.728703347107833388E-14, 2.249639673992777654E-32, 25.00000000000000000 ) ) ;
#131 = CARTESIAN_POINT ( 'NONE',  ( -9.046517534590797963E-32, -2.499999999999996891, -2.591025601067159308E-17 ) ) ;
#132 = AXIS2_PLACEMENT_3D ( 'NONE', #113, #89, #55 ) ;
#133 = APPROVAL_DATE_TIME ( #5, #29 ) ;
#134 = ADVANCED_FACE ( 'NONE', ( #221 ), #103, .F. ) ;
#135 = PERSON_AND_ORGANIZATION ( #159, #162 ) ;
#136 = ORIENTED_EDGE ( 'NONE', *, *, #149, .F. ) ;
#137 = APPLICATION_PROTOCOL_DEFINITION ( 'international standard', 'config_control_design', 1994, #24 ) ;
#138 = DIRECTION ( 'NONE',  ( 0.0000000000000000000, 1.000000000000000000, 0.0000000000000000000 ) ) ;
#139 = CALENDAR_DATE ( 2021, 8, 12 ) ;
#140 = LOCAL_TIME ( 9, 40, 30.00000000000000000, #90 ) ;
#141 = CC_DESIGN_PERSON_AND_ORGANIZATION_ASSIGNMENT ( #7, #183, ( #194 ) ) ;
#142 = MANIFOLD_SOLID_BREP ( 'Corps-Déplacer/Copier1[1]', #146 ) ;
#143 = EDGE_LOOP ( 'NONE', ( #126 ) ) ;
#144 = CC_DESIGN_SECURITY_CLASSIFICATION ( #116, ( #167 ) ) ;
#145 = ORIENTED_EDGE ( 'NONE', *, *, #16, .T. ) ;
#146 = CLOSED_SHELL ( 'NONE', ( #21, #60, #222, #214, #186 ) ) ;
#147 =( GEOMETRIC_REPRESENTATION_CONTEXT ( 3 ) GLOBAL_UNCERTAINTY_ASSIGNED_CONTEXT ( ( #110 ) ) GLOBAL_UNIT_ASSIGNED_CONTEXT ( ( #218, #209, #62 ) ) REPRESENTATION_CONTEXT ( 'NONE', 'WORKASPACE' ) );
#148 = DIRECTION ( 'NONE',  ( -4.456761796588771413E-31, -1.000000000000000000, -1.276467311168695266E-16 ) ) ;
#149 = EDGE_CURVE ( 'NONE', #98, #98, #175, .T. ) ;
#150 = CARTESIAN_POINT ( 'NONE',  ( 2.094888803305880013E-13, 1.874699728327309967E-32, 60.00000000000000000 ) ) ;
#151 = FACE_OUTER_BOUND ( 'NONE', #69, .T. ) ;
#152 = PRODUCT ( '372611', '372611', '', ( #166 ) ) ;
#153 = AXIS2_PLACEMENT_3D ( 'NONE', #178, #99, #197 ) ;
#154 = CALENDAR_DATE ( 2021, 8, 12 ) ;
#155 = APPROVAL_STATUS ( 'not_yet_approved' ) ;
#156 = CC_DESIGN_PERSON_AND_ORGANIZATION_ASSIGNMENT ( #205, #169, ( #116 ) ) ;
#157 = DIRECTION ( 'NONE',  ( 0.0000000000000000000, -1.000000000000000000, 0.0000000000000000000 ) ) ;
#158 = DIRECTION ( 'NONE',  ( -3.491481338843133355E-15, 1.224646799147353207E-16, -1.000000000000000000 ) ) ;
#159 = PERSON ( 'UNSPECIFIED', 'UNSPECIFIED', 'UNSPECIFIED', ('UNSPECIFIED'), ('UNSPECIFIED'), ('UNSPECIFIED') ) ;
#160 = CARTESIAN_POINT ( 'NONE',  ( 8.728703347107833388E-14, -2.500000000000000444, 25.00000000000000000 ) ) ;
#161 = DIRECTION ( 'NONE',  ( -3.491481338843133355E-15, 1.276467311168695266E-16, -1.000000000000000000 ) ) ;
#162 = ORGANIZATION ( 'UNSPECIFIED', 'UNSPECIFIED', '' ) ;
#163 = DIRECTION ( 'NONE',  ( 0.0000000000000000000, 1.000000000000000000, 0.0000000000000000000 ) ) ;
#164 = DIRECTION ( 'NONE',  ( -3.491481338843133355E-15, 1.224646799147353207E-16, -1.000000000000000000 ) ) ;
#165 = FACE_OUTER_BOUND ( 'NONE', #196, .T. ) ;
#166 = MECHANICAL_CONTEXT ( 'NONE', #24, 'mechanical' ) ;
#167 = PRODUCT_DEFINITION_FORMATION_WITH_SPECIFIED_SOURCE ( 'ANY', '', #152, .NOT_KNOWN. ) ;
#168 = CC_DESIGN_PERSON_AND_ORGANIZATION_ASSIGNMENT ( #122, #47, ( #167 ) ) ;
#169 = PERSON_AND_ORGANIZATION_ROLE ( 'classification_officer' ) ;
#170 = ORIENTED_EDGE ( 'NONE', *, *, #66, .T. ) ;
#171 = PERSON_AND_ORGANIZATION ( #159, #162 ) ;
#172 = APPROVAL_PERSON_ORGANIZATION ( #135, #71, #80 ) ;
#173 = EDGE_LOOP ( 'NONE', ( #12 ) ) ;
#174 = FACE_OUTER_BOUND ( 'NONE', #188, .T. ) ;
#175 = CIRCLE ( 'NONE', #132, 2.499999999999996891 ) ;
#176 = CARTESIAN_POINT ( 'NONE',  ( 2.094888803305880013E-13, 2.499999999999991562, 60.00000000000000000 ) ) ;
#177 = ADVANCED_FACE ( 'NONE', ( #72 ), #100, .T. ) ;
#178 = CARTESIAN_POINT ( 'NONE',  ( 8.728703347107833388E-14, -3.191168277921738509E-15, 25.00000000000000000 ) ) ;
#179 = CARTESIAN_POINT ( 'NONE',  ( 9.380222634619888321E-14, -3.429360320895857381E-15, 26.86602540378442683 ) ) ;
#180 = AXIS2_PLACEMENT_3D ( 'NONE', #14, #117, #54 ) ;
#181 = VERTEX_POINT ( 'NONE', #220 ) ;
#182 = CARTESIAN_POINT ( 'NONE',  ( 2.077431396611664157E-13, 2.999999999999991562, 59.50000000000000000 ) ) ;
#183 = PERSON_AND_ORGANIZATION_ROLE ( 'creator' ) ;
#184 = CALENDAR_DATE ( 2021, 8, 12 ) ;
#185 = ADVANCED_BREP_SHAPE_REPRESENTATION ( '372611', ( #142, #219, #8 ), #147 ) ;
#186 = ADVANCED_FACE ( 'NONE', ( #15 ), #87, .F. ) ;
#187 = APPROVAL_ROLE ( '' ) ;
#188 = EDGE_LOOP ( 'NONE', ( #84 ) ) ;
#189 = DATE_AND_TIME ( #61, #83 ) ;
#190 = CARTESIAN_POINT ( 'NONE',  ( 0.0000000000000000000, 0.0000000000000000000, 0.0000000000000000000 ) ) ;
#191 = CARTESIAN_POINT ( 'NONE',  ( 0.0000000000000000000, 0.0000000000000000000, 0.0000000000000000000 ) ) ;
#192 = PRODUCT_RELATED_PRODUCT_CATEGORY ( 'detail', '', ( #152 ) ) ;
#193 = AXIS2_PLACEMENT_3D ( 'NONE', #127, #203, #36 ) ;
#194 = PRODUCT_DEFINITION ( 'UNKNOWN', '', #167, #2 ) ;
#195 = APPROVAL_PERSON_ORGANIZATION ( #58, #105, #40 ) ;
#196 = EDGE_LOOP ( 'NONE', ( #215 ) ) ;
#197 = DIRECTION ( 'NONE',  ( 0.0000000000000000000, -1.000000000000000000, 0.0000000000000000000 ) ) ;
#198 = ADVANCED_FACE ( 'NONE', ( #52, #151 ), #39, .T. ) ;
#199 = CC_DESIGN_APPROVAL ( #71, ( #116 ) ) ;
#200 = DIRECTION ( 'NONE',  ( -3.491481338843133355E-15, 1.224646799147353207E-16, -1.000000000000000000 ) ) ;
#201 = DIRECTION ( 'NONE',  ( 4.275831445896958607E-31, 1.000000000000000000, 1.224646799147353207E-16 ) ) ;
#202 = FACE_OUTER_BOUND ( 'NONE', #143, .T. ) ;
#203 = DIRECTION ( 'NONE',  ( 3.491481338843133355E-15, -1.224646799147353207E-16, 1.000000000000000000 ) ) ;
#204 = CALENDAR_DATE ( 2021, 8, 12 ) ;
#205 = PERSON_AND_ORGANIZATION ( #159, #162 ) ;
#206 = CIRCLE ( 'NONE', #101, 2.499999999999997335 ) ;
#207 = COORDINATED_UNIVERSAL_TIME_OFFSET ( 1, 0, .AHEAD. ) ;
#208 = EDGE_LOOP ( 'NONE', ( #136 ) ) ;
#209 =( NAMED_UNIT ( * ) PLANE_ANGLE_UNIT ( ) SI_UNIT ( $, .RADIAN. ) );
#210 = EDGE_LOOP ( 'NONE', ( #119 ) ) ;
#211 = APPROVAL_DATE_TIME ( #189, #71 ) ;
#212 = PRODUCT_DEFINITION_SHAPE ( 'NONE', 'NONE',  #194 ) ;
#213 = CIRCLE ( 'NONE', #153, 2.499999999999997335 ) ;
#214 = ADVANCED_FACE ( 'NONE', ( #88, #165 ), #51, .T. ) ;
#215 = ORIENTED_EDGE ( 'NONE', *, *, #74, .T. ) ;
#216 = LOCAL_TIME ( 9, 40, 30.00000000000000000, #81 ) ;
#217 = EDGE_LOOP ( 'NONE', ( #123 ) ) ;
#218 =( LENGTH_UNIT ( ) NAMED_UNIT ( * ) SI_UNIT ( .MILLI., .METRE. ) );
#219 = MANIFOLD_SOLID_BREP ( 'Corps-Déplacer/Copier1[2]', #30 ) ;
#220 = CARTESIAN_POINT ( 'NONE',  ( 9.380222634619888321E-14, -3.000000000000000000, 26.86602540378442683 ) ) ;
#221 = FACE_OUTER_BOUND ( 'NONE', #208, .T. ) ;
#222 = ADVANCED_FACE ( 'NONE', ( #202 ), #129, .F. ) ;
#223 = DIRECTION ( 'NONE',  ( 0.0000000000000000000, 1.000000000000000000, 0.0000000000000000000 ) ) ;
ENDSEC;
END-ISO-10303-21;
