ISO-10303-21;
HEADER;
FILE_DESCRIPTION (( 'STEP AP203' ),
    '1' );
FILE_NAME ('372610.step',
    '2021-12-08T08:40:30',
    ( '' ),
    ( '' ),
    'SwSTEP 2.0',
    'SolidWorks 2019',
    '' );
FILE_SCHEMA (( 'CONFIG_CONTROL_DESIGN' ));
ENDSEC;

DATA;
#1 = CARTESIAN_POINT ( 'NONE',  ( 2.094888803305880013E-13, 2.499999999999991562, 60.00000000000000000 ) ) ;
#2 = APPLICATION_CONTEXT ( 'configuration controlled 3d designs of mechanical parts and assemblies' ) ;
#3 = DIRECTION ( 'NONE',  ( 3.491481338843133355E-15, -1.276467311168695266E-16, 1.000000000000000000 ) ) ;
#4 = CARTESIAN_POINT ( 'NONE',  ( 6.982962677686266711E-14, -2.500000000000000444, 20.00000000000000000 ) ) ;
#5 = PRODUCT_DEFINITION_SHAPE ( 'NONE', 'NONE',  #103 ) ;
#6 = SHAPE_DEFINITION_REPRESENTATION ( #5, #174 ) ;
#7 = CALENDAR_DATE ( 2021, 8, 12 ) ;
#8 = ADVANCED_FACE ( 'NONE', ( #186 ), #33, .F. ) ;
#9 = CARTESIAN_POINT ( 'NONE',  ( 2.094888803305880013E-13, -7.347880794884118356E-15, 60.00000000000000000 ) ) ;
#10 = AXIS2_PLACEMENT_3D ( 'NONE', #14, #132, #12 ) ;
#11 = DESIGN_CONTEXT ( 'detailed design', #2, 'design' ) ;
#12 = DIRECTION ( 'NONE',  ( -4.275831445896958607E-31, -1.000000000000000000, -1.224646799147353207E-16 ) ) ;
#13 = PERSON_AND_ORGANIZATION ( #82, #48 ) ;
#14 = CARTESIAN_POINT ( 'NONE',  ( -5.344808899709470047E-31, 1.874706600394511987E-32, -1.530814110402897908E-16 ) ) ;
#15 = FACE_OUTER_BOUND ( 'NONE', #196, .T. ) ;
#16 = CIRCLE ( 'NONE', #25, 2.999999999999998668 ) ;
#17 = CARTESIAN_POINT ( 'NONE',  ( 6.982962677686266711E-14, 2.249639673992777927E-32, 20.00000000000000000 ) ) ;
#18 = CALENDAR_DATE ( 2021, 8, 12 ) ;
#19 = VERTEX_POINT ( 'NONE', #121 ) ;
#20 = DIRECTION ( 'NONE',  ( 0.0000000000000000000, -1.000000000000000000, 0.0000000000000000000 ) ) ;
#21 =( LENGTH_UNIT ( ) NAMED_UNIT ( * ) SI_UNIT ( .MILLI., .METRE. ) );
#22 = PERSON_AND_ORGANIZATION_ROLE ( 'creator' ) ;
#23 = CC_DESIGN_APPROVAL ( #38, ( #162 ) ) ;
#24 = APPROVAL ( #41, 'UNSPECIFIED' ) ;
#25 = AXIS2_PLACEMENT_3D ( 'NONE', #49, #116, #32 ) ;
#26 = APPROVAL_ROLE ( '' ) ;
#27 = EDGE_LOOP ( 'NONE', ( #83 ) ) ;
#28 = COORDINATED_UNIVERSAL_TIME_OFFSET ( 1, 0, .AHEAD. ) ;
#29 = EDGE_LOOP ( 'NONE', ( #210 ) ) ;
#30 = AXIS2_PLACEMENT_3D ( 'NONE', #199, #31, #167 ) ;
#31 = DIRECTION ( 'NONE',  ( 3.491481338843133355E-15, -1.276467311168695266E-16, 1.000000000000000000 ) ) ;
#32 = DIRECTION ( 'NONE',  ( 0.0000000000000000000, 1.000000000000000000, 0.0000000000000000000 ) ) ;
#33 = PLANE ( 'NONE',  #10 ) ;
#34 = PERSON_AND_ORGANIZATION ( #82, #48 ) ;
#35 = COORDINATED_UNIVERSAL_TIME_OFFSET ( 1, 0, .AHEAD. ) ;
#36 = AXIS2_PLACEMENT_3D ( 'NONE', #148, #130, #45 ) ;
#37 = DATE_TIME_ROLE ( 'creation_date' ) ;
#38 = APPROVAL ( #158, 'UNSPECIFIED' ) ;
#39 = DATE_TIME_ROLE ( 'classification_date' ) ;
#40 = ORIENTED_EDGE ( 'NONE', *, *, #43, .T. ) ;
#41 = APPROVAL_STATUS ( 'not_yet_approved' ) ;
#42 = PRODUCT ( '372610', '372610', '', ( #172 ) ) ;
#43 = EDGE_CURVE ( 'NONE', #71, #71, #76, .T. ) ;
#44 =( GEOMETRIC_REPRESENTATION_CONTEXT ( 3 ) GLOBAL_UNCERTAINTY_ASSIGNED_CONTEXT ( ( #156 ) ) GLOBAL_UNIT_ASSIGNED_CONTEXT ( ( #21, #154, #203 ) ) REPRESENTATION_CONTEXT ( 'NONE', 'WORKASPACE' ) );
#45 = DIRECTION ( 'NONE',  ( 4.275831445896958607E-31, 1.000000000000000000, 1.224646799147353207E-16 ) ) ;
#46 = DIRECTION ( 'NONE',  ( 3.491481338843133355E-15, -1.224646799147353207E-16, 1.000000000000000000 ) ) ;
#47 = ORIENTED_EDGE ( 'NONE', *, *, #163, .T. ) ;
#48 = ORGANIZATION ( 'UNSPECIFIED', 'UNSPECIFIED', '' ) ;
#49 = CARTESIAN_POINT ( 'NONE',  ( 2.077431396611664157E-13, -7.286648454926750781E-15, 59.50000000000000000 ) ) ;
#50 = ORIENTED_EDGE ( 'NONE', *, *, #221, .T. ) ;
#51 = PERSON_AND_ORGANIZATION_ROLE ( 'design_owner' ) ;
#52 = CLOSED_SHELL ( 'NONE', ( #57, #213, #8 ) ) ;
#53 = APPROVAL_PERSON_ORGANIZATION ( #34, #113, #122 ) ;
#54 = COORDINATED_UNIVERSAL_TIME_OFFSET ( 1, 0, .AHEAD. ) ;
#55 = CALENDAR_DATE ( 2021, 8, 12 ) ;
#56 = CC_DESIGN_APPROVAL ( #113, ( #103 ) ) ;
#57 = ADVANCED_FACE ( 'NONE', ( #220 ), #135, .T. ) ;
#58 = COORDINATED_UNIVERSAL_TIME_OFFSET ( 1, 0, .AHEAD. ) ;
#59 = EDGE_LOOP ( 'NONE', ( #216 ) ) ;
#60 = PERSON_AND_ORGANIZATION_ROLE ( 'classification_officer' ) ;
#61 = CC_DESIGN_PERSON_AND_ORGANIZATION_ASSIGNMENT ( #191, #60, ( #96 ) ) ;
#62 = EDGE_LOOP ( 'NONE', ( #50 ) ) ;
#63 = DIRECTION ( 'NONE',  ( -3.491481338843133355E-15, 1.276467311168695266E-16, -1.000000000000000000 ) ) ;
#64 = DIRECTION ( 'NONE',  ( 0.0000000000000000000, 1.000000000000000000, 0.0000000000000000000 ) ) ;
#65 = FACE_BOUND ( 'NONE', #77, .T. ) ;
#66 = CIRCLE ( 'NONE', #94, 2.499999999999998668 ) ;
#67 = CARTESIAN_POINT ( 'NONE',  ( 6.982962677686266711E-14, 2.249639673992777927E-32, 20.00000000000000000 ) ) ;
#68 = DIRECTION ( 'NONE',  ( 3.491481338843133355E-15, -1.276467311168695266E-16, 1.000000000000000000 ) ) ;
#69 = CARTESIAN_POINT ( 'NONE',  ( 6.982962677686266711E-14, -2.500000000000000444, 20.00000000000000000 ) ) ;
#70 = LOCAL_TIME ( 9, 40, 30.00000000000000000, #35 ) ;
#71 = VERTEX_POINT ( 'NONE', #188 ) ;
#72 = DIRECTION ( 'NONE',  ( 3.491481338843133355E-15, -1.276467311168695266E-16, 1.000000000000000000 ) ) ;
#73 = FACE_OUTER_BOUND ( 'NONE', #102, .T. ) ;
#74 = DATE_AND_TIME ( #143, #147 ) ;
#75 = CC_DESIGN_DATE_AND_TIME_ASSIGNMENT ( #170, #37, ( #103 ) ) ;
#76 = CIRCLE ( 'NONE', #200, 2.999999999999996447 ) ;
#77 = EDGE_LOOP ( 'NONE', ( #214 ) ) ;
#78 = DIRECTION ( 'NONE',  ( -3.491481338843133355E-15, 1.224646799147353207E-16, -1.000000000000000000 ) ) ;
#79 = CONICAL_SURFACE ( 'NONE', #212, 7.499999999999999112, 0.2617993877991502960 ) ;
#80 = FACE_OUTER_BOUND ( 'NONE', #59, .T. ) ;
#81 = CARTESIAN_POINT ( 'NONE',  ( 1.023725273801283385E-30, -6.087552285867516400E-32, 2.932065717815018504E-16 ) ) ;
#82 = PERSON ( 'UNSPECIFIED', 'UNSPECIFIED', 'UNSPECIFIED', ('UNSPECIFIED'), ('UNSPECIFIED'), ('UNSPECIFIED') ) ;
#83 = ORIENTED_EDGE ( 'NONE', *, *, #43, .F. ) ;
#84 = FACE_BOUND ( 'NONE', #62, .T. ) ;
#85 = CARTESIAN_POINT ( 'NONE',  ( -6.413839710158237013E-31, 0.0000000000000000000, -1.836996703606440502E-16 ) ) ;
#86 = VERTEX_POINT ( 'NONE', #4 ) ;
#87 = CONICAL_SURFACE ( 'NONE', #119, 2.499999999999998668, 0.7853981633974479459 ) ;
#88 = PERSON_AND_ORGANIZATION ( #82, #48 ) ;
#89 = APPROVAL_DATE_TIME ( #104, #113 ) ;
#90 = PRODUCT_RELATED_PRODUCT_CATEGORY ( 'detail', '', ( #42 ) ) ;
#91 = APPROVAL_ROLE ( '' ) ;
#92 = PERSON_AND_ORGANIZATION ( #82, #48 ) ;
#93 = ADVANCED_FACE ( 'NONE', ( #184 ), #98, .F. ) ;
#94 = AXIS2_PLACEMENT_3D ( 'NONE', #217, #201, #64 ) ;
#95 = ORIENTED_EDGE ( 'NONE', *, *, #221, .F. ) ;
#96 = SECURITY_CLASSIFICATION ( '', '', #190 ) ;
#97 = CC_DESIGN_PERSON_AND_ORGANIZATION_ASSIGNMENT ( #92, #180, ( #162 ) ) ;
#98 = PLANE ( 'NONE',  #36 ) ;
#99 = DATE_AND_TIME ( #160, #206 ) ;
#100 = CARTESIAN_POINT ( 'NONE',  ( 1.349815555280683119E-13, -4.934855052078582998E-15, 38.66025403784431802 ) ) ;
#101 = CARTESIAN_POINT ( 'NONE',  ( 0.0000000000000000000, 0.0000000000000000000, 0.0000000000000000000 ) ) ;
#102 = EDGE_LOOP ( 'NONE', ( #134 ) ) ;
#103 = PRODUCT_DEFINITION ( 'UNKNOWN', '', #162, #11 ) ;
#104 = DATE_AND_TIME ( #18, #70 ) ;
#105 = AXIS2_PLACEMENT_3D ( 'NONE', #67, #46, #117 ) ;
#106 = CIRCLE ( 'NONE', #30, 2.499999999999997780 ) ;
#107 = PERSON_AND_ORGANIZATION ( #82, #48 ) ;
#108 = EDGE_LOOP ( 'NONE', ( #47 ) ) ;
#109 = LOCAL_TIME ( 9, 40, 30.00000000000000000, #54 ) ;
#110 = DIRECTION ( 'NONE',  ( -4.275831445896958607E-31, -1.000000000000000000, -1.224646799147353207E-16 ) ) ;
#111 = DIRECTION ( 'NONE',  ( 4.275831445896958607E-31, 1.000000000000000000, 1.224646799147353207E-16 ) ) ;
#112 = APPROVAL_DATE_TIME ( #126, #38 ) ;
#113 = APPROVAL ( #205, 'UNSPECIFIED' ) ;
#114 = FACE_OUTER_BOUND ( 'NONE', #152, .T. ) ;
#115 = AXIS2_PLACEMENT_3D ( 'NONE', #81, #68, #149 ) ;
#116 = DIRECTION ( 'NONE',  ( -3.491481338843133355E-15, 1.224646799147353207E-16, -1.000000000000000000 ) ) ;
#117 = DIRECTION ( 'NONE',  ( -4.275831445896958607E-31, -1.000000000000000000, -1.224646799147353207E-16 ) ) ;
#118 = CARTESIAN_POINT ( 'NONE',  ( 0.0000000000000000000, 0.0000000000000000000, 0.0000000000000000000 ) ) ;
#119 = AXIS2_PLACEMENT_3D ( 'NONE', #9, #78, #165 ) ;
#120 = COORDINATED_UNIVERSAL_TIME_OFFSET ( 1, 0, .AHEAD. ) ;
#121 = CARTESIAN_POINT ( 'NONE',  ( 2.077431396611664157E-13, 2.999999999999991562, 59.50000000000000000 ) ) ;
#122 = APPROVAL_ROLE ( '' ) ;
#123 = LOCAL_TIME ( 9, 40, 30.00000000000000000, #120 ) ;
#124 = APPROVAL_DATE_TIME ( #99, #24 ) ;
#125 = CC_DESIGN_PERSON_AND_ORGANIZATION_ASSIGNMENT ( #159, #22, ( #103 ) ) ;
#126 = DATE_AND_TIME ( #7, #123 ) ;
#127 = EDGE_LOOP ( 'NONE', ( #142 ) ) ;
#128 = CC_DESIGN_DATE_AND_TIME_ASSIGNMENT ( #74, #39, ( #96 ) ) ;
#129 = CIRCLE ( 'NONE', #151, 2.499999999999997780 ) ;
#130 = DIRECTION ( 'NONE',  ( -3.491481338843133355E-15, 1.224646799147353207E-16, -1.000000000000000000 ) ) ;
#131 = PERSON_AND_ORGANIZATION_ROLE ( 'creator' ) ;
#132 = DIRECTION ( 'NONE',  ( 3.491481338843133355E-15, -1.224646799147353207E-16, 1.000000000000000000 ) ) ;
#133 = DIRECTION ( 'NONE',  ( 0.0000000000000000000, -1.000000000000000000, 0.0000000000000000000 ) ) ;
#134 = ORIENTED_EDGE ( 'NONE', *, *, #163, .F. ) ;
#135 = PLANE ( 'NONE',  #105 ) ;
#136 = MANIFOLD_SOLID_BREP ( 'Corps-Déplacer/Copier1[1]', #177 ) ;
#137 = APPLICATION_PROTOCOL_DEFINITION ( 'international standard', 'config_control_design', 1994, #2 ) ;
#138 = VERTEX_POINT ( 'NONE', #223 ) ;
#139 = DIRECTION ( 'NONE',  ( 1.000000000000000000, 0.0000000000000000000, 0.0000000000000000000 ) ) ;
#140 = CIRCLE ( 'NONE', #115, 2.499999999999996891 ) ;
#141 = ADVANCED_FACE ( 'NONE', ( #222 ), #183, .F. ) ;
#142 = ORIENTED_EDGE ( 'NONE', *, *, #155, .F. ) ;
#143 = CALENDAR_DATE ( 2021, 8, 12 ) ;
#144 = AXIS2_PLACEMENT_3D ( 'NONE', #118, #157, #139 ) ;
#145 = CC_DESIGN_PERSON_AND_ORGANIZATION_ASSIGNMENT ( #88, #51, ( #42 ) ) ;
#146 = ORIENTED_EDGE ( 'NONE', *, *, #176, .F. ) ;
#147 = LOCAL_TIME ( 9, 40, 30.00000000000000000, #28 ) ;
#148 = CARTESIAN_POINT ( 'NONE',  ( 2.094888803305880013E-13, 1.874699728327309967E-32, 60.00000000000000000 ) ) ;
#149 = DIRECTION ( 'NONE',  ( -4.456761796588771413E-31, -1.000000000000000000, -1.276467311168695266E-16 ) ) ;
#150 = DIRECTION ( 'NONE',  ( -3.491481338843133355E-15, 1.224646799147353207E-16, -1.000000000000000000 ) ) ;
#151 = AXIS2_PLACEMENT_3D ( 'NONE', #175, #3, #20 ) ;
#152 = EDGE_LOOP ( 'NONE', ( #192 ) ) ;
#153 = VERTEX_POINT ( 'NONE', #1 ) ;
#154 =( NAMED_UNIT ( * ) PLANE_ANGLE_UNIT ( ) SI_UNIT ( $, .RADIAN. ) );
#155 = EDGE_CURVE ( 'NONE', #153, #153, #66, .T. ) ;
#156 = UNCERTAINTY_MEASURE_WITH_UNIT (LENGTH_MEASURE( 1.000000000000000082E-05 ), #21, 'distance_accuracy_value', 'NONE');
#157 = DIRECTION ( 'NONE',  ( 0.0000000000000000000, 0.0000000000000000000, 1.000000000000000000 ) ) ;
#158 = APPROVAL_STATUS ( 'not_yet_approved' ) ;
#159 = PERSON_AND_ORGANIZATION ( #82, #48 ) ;
#160 = CALENDAR_DATE ( 2021, 8, 12 ) ;
#161 = AXIS2_PLACEMENT_3D ( 'NONE', #17, #181, #110 ) ;
#162 = PRODUCT_DEFINITION_FORMATION_WITH_SPECIFIED_SOURCE ( 'ANY', '', #42, .NOT_KNOWN. ) ;
#163 = EDGE_CURVE ( 'NONE', #207, #207, #106, .T. ) ;
#164 = FACE_OUTER_BOUND ( 'NONE', #195, .T. ) ;
#165 = DIRECTION ( 'NONE',  ( 0.0000000000000000000, 1.000000000000000000, 0.0000000000000000000 ) ) ;
#166 = EDGE_LOOP ( 'NONE', ( #95 ) ) ;
#167 = DIRECTION ( 'NONE',  ( 0.0000000000000000000, -1.000000000000000000, 0.0000000000000000000 ) ) ;
#168 = ADVANCED_FACE ( 'NONE', ( #114, #202 ), #197, .T. ) ;
#169 = CARTESIAN_POINT ( 'NONE',  ( 7.634481965198320381E-14, -2.791126665311508811E-15, 21.86602540378442328 ) ) ;
#170 = DATE_AND_TIME ( #55, #109 ) ;
#171 = DIRECTION ( 'NONE',  ( -4.456761796588770537E-31, -1.000000000000000000, -1.276467311168695266E-16 ) ) ;
#172 = MECHANICAL_CONTEXT ( 'NONE', #198, 'mechanical' ) ;
#173 = CC_DESIGN_APPROVAL ( #24, ( #96 ) ) ;
#174 = ADVANCED_BREP_SHAPE_REPRESENTATION ( '372610', ( #136, #215, #144 ), #44 ) ;
#175 = CARTESIAN_POINT ( 'NONE',  ( 6.982962677686266711E-14, -2.552934622337390728E-15, 20.00000000000000000 ) ) ;
#176 = EDGE_CURVE ( 'NONE', #19, #19, #16, .T. ) ;
#177 = CLOSED_SHELL ( 'NONE', ( #168, #211, #93, #185, #141 ) ) ;
#178 = APPROVAL_PERSON_ORGANIZATION ( #13, #24, #26 ) ;
#179 = DIRECTION ( 'NONE',  ( 3.491481338843133355E-15, -1.276467311168695266E-16, 1.000000000000000000 ) ) ;
#180 = PERSON_AND_ORGANIZATION_ROLE ( 'design_supplier' ) ;
#181 = DIRECTION ( 'NONE',  ( 3.491481338843133355E-15, -1.224646799147353207E-16, 1.000000000000000000 ) ) ;
#182 = AXIS2_PLACEMENT_3D ( 'NONE', #101, #150, #111 ) ;
#183 = PLANE ( 'NONE',  #161 ) ;
#184 = FACE_OUTER_BOUND ( 'NONE', #127, .T. ) ;
#185 = ADVANCED_FACE ( 'NONE', ( #84, #15 ), #79, .T. ) ;
#186 = FACE_OUTER_BOUND ( 'NONE', #29, .T. ) ;
#187 = APPROVAL_PERSON_ORGANIZATION ( #107, #38, #91 ) ;
#188 = CARTESIAN_POINT ( 'NONE',  ( 7.634481965198320381E-14, -2.999999999999999112, 21.86602540378442328 ) ) ;
#189 = CYLINDRICAL_SURFACE ( 'NONE', #209, 2.499999999999997335 ) ;
#190 = SECURITY_CLASSIFICATION_LEVEL ( 'unclassified' ) ;
#191 = PERSON_AND_ORGANIZATION ( #82, #48 ) ;
#192 = ORIENTED_EDGE ( 'NONE', *, *, #176, .T. ) ;
#193 = CC_DESIGN_PERSON_AND_ORGANIZATION_ASSIGNMENT ( #194, #131, ( #162 ) ) ;
#194 = PERSON_AND_ORGANIZATION ( #82, #48 ) ;
#195 = EDGE_LOOP ( 'NONE', ( #146 ) ) ;
#196 = EDGE_LOOP ( 'NONE', ( #40 ) ) ;
#197 = CYLINDRICAL_SURFACE ( 'NONE', #182, 2.999999999999996447 ) ;
#198 = APPLICATION_CONTEXT ( 'configuration controlled 3d designs of mechanical parts and assemblies' ) ;
#199 = CARTESIAN_POINT ( 'NONE',  ( 6.982962677686266711E-14, -2.552934622337390728E-15, 20.00000000000000000 ) ) ;
#200 = AXIS2_PLACEMENT_3D ( 'NONE', #169, #63, #133 ) ;
#201 = DIRECTION ( 'NONE',  ( -3.491481338843133355E-15, 1.224646799147353207E-16, -1.000000000000000000 ) ) ;
#202 = FACE_OUTER_BOUND ( 'NONE', #27, .T. ) ;
#203 =( NAMED_UNIT ( * ) SI_UNIT ( $, .STERADIAN. ) SOLID_ANGLE_UNIT ( ) );
#204 = EDGE_CURVE ( 'NONE', #138, #138, #140, .T. ) ;
#205 = APPROVAL_STATUS ( 'not_yet_approved' ) ;
#206 = LOCAL_TIME ( 9, 40, 30.00000000000000000, #58 ) ;
#207 = VERTEX_POINT ( 'NONE', #69 ) ;
#208 = APPLICATION_PROTOCOL_DEFINITION ( 'international standard', 'config_control_design', 1994, #198 ) ;
#209 = AXIS2_PLACEMENT_3D ( 'NONE', #85, #72, #171 ) ;
#210 = ORIENTED_EDGE ( 'NONE', *, *, #204, .F. ) ;
#211 = ADVANCED_FACE ( 'NONE', ( #164, #65 ), #87, .T. ) ;
#212 = AXIS2_PLACEMENT_3D ( 'NONE', #100, #179, #218 ) ;
#213 = ADVANCED_FACE ( 'NONE', ( #80, #73 ), #189, .T. ) ;
#214 = ORIENTED_EDGE ( 'NONE', *, *, #155, .T. ) ;
#215 = MANIFOLD_SOLID_BREP ( 'Corps-Déplacer/Copier1[2]', #52 ) ;
#216 = ORIENTED_EDGE ( 'NONE', *, *, #204, .T. ) ;
#217 = CARTESIAN_POINT ( 'NONE',  ( 2.094888803305880013E-13, -7.347880794884118356E-15, 60.00000000000000000 ) ) ;
#218 = DIRECTION ( 'NONE',  ( 0.0000000000000000000, -1.000000000000000000, 0.0000000000000000000 ) ) ;
#219 = CC_DESIGN_SECURITY_CLASSIFICATION ( #96, ( #162 ) ) ;
#220 = FACE_OUTER_BOUND ( 'NONE', #108, .T. ) ;
#221 = EDGE_CURVE ( 'NONE', #86, #86, #129, .T. ) ;
#222 = FACE_OUTER_BOUND ( 'NONE', #166, .T. ) ;
#223 = CARTESIAN_POINT ( 'NONE',  ( -9.046517534590797963E-32, -2.499999999999996891, -2.591025601067159308E-17 ) ) ;
ENDSEC;
END-ISO-10303-21;
