ISO-10303-21;
HEADER;
FILE_DESCRIPTION (( 'STEP AP203' ),
    '1' );
FILE_NAME ('372609.step',
    '2021-12-08T08:40:29',
    ( '' ),
    ( '' ),
    'SwSTEP 2.0',
    'SolidWorks 2019',
    '' );
FILE_SCHEMA (( 'CONFIG_CONTROL_DESIGN' ));
ENDSEC;

DATA;
#1 = FACE_OUTER_BOUND ( 'NONE', #209, .T. ) ;
#2 = AXIS2_PLACEMENT_3D ( 'NONE', #86, #187, #84 ) ;
#3 = CYLINDRICAL_SURFACE ( 'NONE', #179, 2.999999999999996003 ) ;
#4 = ORIENTED_EDGE ( 'NONE', *, *, #141, .T. ) ;
#5 = DIRECTION ( 'NONE',  ( -4.275831445896958607E-31, -1.000000000000000000, -1.224646799147353207E-16 ) ) ;
#6 = AXIS2_PLACEMENT_3D ( 'NONE', #183, #25, #5 ) ;
#7 = APPLICATION_CONTEXT ( 'configuration controlled 3d designs of mechanical parts and assemblies' ) ;
#8 = CARTESIAN_POINT ( 'NONE',  ( 5.586370142149013368E-14, 2.249639673992778475E-32, 16.00000000000000000 ) ) ;
#9 =( LENGTH_UNIT ( ) NAMED_UNIT ( * ) SI_UNIT ( .MILLI., .METRE. ) );
#10 = CARTESIAN_POINT ( 'NONE',  ( 2.094888803305880013E-13, -7.347880794884118356E-15, 60.00000000000000000 ) ) ;
#11 = DIRECTION ( 'NONE',  ( 1.000000000000000000, 0.0000000000000000000, 0.0000000000000000000 ) ) ;
#12 = PERSON_AND_ORGANIZATION ( #101, #191 ) ;
#13 = CONICAL_SURFACE ( 'NONE', #75, 7.499999999999997335, 0.2617993877991502960 ) ;
#14 = EDGE_CURVE ( 'NONE', #88, #88, #112, .T. ) ;
#15 = PERSON_AND_ORGANIZATION ( #101, #191 ) ;
#16 = PERSON_AND_ORGANIZATION ( #101, #191 ) ;
#17 = PERSON_AND_ORGANIZATION_ROLE ( 'creator' ) ;
#18 = PERSON_AND_ORGANIZATION_ROLE ( 'design_owner' ) ;
#19 = CARTESIAN_POINT ( 'NONE',  ( 1.210156301726958289E-13, -4.424268127611105878E-15, 34.66025403784432513 ) ) ;
#20 = ORIENTED_EDGE ( 'NONE', *, *, #31, .T. ) ;
#21 = ADVANCED_FACE ( 'NONE', ( #159 ), #197, .F. ) ;
#22 = LOCAL_TIME ( 9, 40, 29.00000000000000000, #122 ) ;
#23 = EDGE_LOOP ( 'NONE', ( #20 ) ) ;
#24 = DIRECTION ( 'NONE',  ( -4.275831445896958607E-31, -1.000000000000000000, -1.224646799147353207E-16 ) ) ;
#25 = DIRECTION ( 'NONE',  ( 3.491481338843133355E-15, -1.224646799147353207E-16, 1.000000000000000000 ) ) ;
#26 = ADVANCED_FACE ( 'NONE', ( #39, #1 ), #3, .T. ) ;
#27 = DIRECTION ( 'NONE',  ( -3.491481338843133355E-15, 1.224646799147353207E-16, -1.000000000000000000 ) ) ;
#28 = CARTESIAN_POINT ( 'NONE',  ( 2.094888803305880013E-13, 2.499999999999991562, 60.00000000000000000 ) ) ;
#29 = FACE_OUTER_BOUND ( 'NONE', #194, .T. ) ;
#30 = APPROVAL_PERSON_ORGANIZATION ( #73, #53, #172 ) ;
#31 = EDGE_CURVE ( 'NONE', #102, #102, #50, .T. ) ;
#32 = APPLICATION_PROTOCOL_DEFINITION ( 'international standard', 'config_control_design', 1994, #7 ) ;
#33 = APPROVAL_PERSON_ORGANIZATION ( #12, #204, #158 ) ;
#34 = CALENDAR_DATE ( 2021, 8, 12 ) ;
#35 = CC_DESIGN_PERSON_AND_ORGANIZATION_ASSIGNMENT ( #15, #18, ( #206 ) ) ;
#36 = DATE_TIME_ROLE ( 'classification_date' ) ;
#37 = PRODUCT_DEFINITION_FORMATION_WITH_SPECIFIED_SOURCE ( 'ANY', '', #206, .NOT_KNOWN. ) ;
#38 = FACE_OUTER_BOUND ( 'NONE', #59, .T. ) ;
#39 = FACE_OUTER_BOUND ( 'NONE', #162, .T. ) ;
#40 = ORIENTED_EDGE ( 'NONE', *, *, #14, .F. ) ;
#41 = CARTESIAN_POINT ( 'NONE',  ( 0.0000000000000000000, 0.0000000000000000000, 0.0000000000000000000 ) ) ;
#42 = CARTESIAN_POINT ( 'NONE',  ( 5.586370142149013368E-14, -2.042347697869912425E-15, 16.00000000000000000 ) ) ;
#43 = CARTESIAN_POINT ( 'NONE',  ( 5.586370142149013368E-14, -2.042347697869912425E-15, 16.00000000000000000 ) ) ;
#44 = VERTEX_POINT ( 'NONE', #165 ) ;
#45 = CARTESIAN_POINT ( 'NONE',  ( 5.586370142149013368E-14, -2.499999999999998668, 16.00000000000000000 ) ) ;
#46 = AXIS2_PLACEMENT_3D ( 'NONE', #107, #170, #11 ) ;
#47 = DATE_AND_TIME ( #223, #22 ) ;
#48 = CALENDAR_DATE ( 2021, 8, 12 ) ;
#49 = PERSON_AND_ORGANIZATION ( #101, #191 ) ;
#50 = CIRCLE ( 'NONE', #87, 2.499999999999996891 ) ;
#51 = CC_DESIGN_APPROVAL ( #53, ( #173 ) ) ;
#52 = CIRCLE ( 'NONE', #195, 2.499999999999996447 ) ;
#53 = APPROVAL ( #136, 'UNSPECIFIED' ) ;
#54 = DIRECTION ( 'NONE',  ( 0.0000000000000000000, -1.000000000000000000, 0.0000000000000000000 ) ) ;
#55 = DESIGN_CONTEXT ( 'detailed design', #7, 'design' ) ;
#56 = EDGE_LOOP ( 'NONE', ( #128 ) ) ;
#57 = APPROVAL ( #90, 'UNSPECIFIED' ) ;
#58 = AXIS2_PLACEMENT_3D ( 'NONE', #132, #89, #104 ) ;
#59 = EDGE_LOOP ( 'NONE', ( #142 ) ) ;
#60 = ADVANCED_BREP_SHAPE_REPRESENTATION ( '372609', ( #216, #211, #46 ), #133 ) ;
#61 = EDGE_LOOP ( 'NONE', ( #78 ) ) ;
#62 = CC_DESIGN_APPROVAL ( #57, ( #37 ) ) ;
#63 = CARTESIAN_POINT ( 'NONE',  ( 2.077431396611664157E-13, -7.286648454926750781E-15, 59.50000000000000000 ) ) ;
#64 = ADVANCED_FACE ( 'NONE', ( #127 ), #80, .F. ) ;
#65 = DIRECTION ( 'NONE',  ( 0.0000000000000000000, -1.000000000000000000, 0.0000000000000000000 ) ) ;
#66 = MECHANICAL_CONTEXT ( 'NONE', #217, 'mechanical' ) ;
#67 = EDGE_CURVE ( 'NONE', #147, #147, #52, .T. ) ;
#68 = APPLICATION_PROTOCOL_DEFINITION ( 'international standard', 'config_control_design', 1994, #217 ) ;
#69 = LOCAL_TIME ( 9, 40, 29.00000000000000000, #93 ) ;
#70 = DATE_TIME_ROLE ( 'creation_date' ) ;
#71 = PERSON_AND_ORGANIZATION_ROLE ( 'design_supplier' ) ;
#72 = DATE_AND_TIME ( #48, #76 ) ;
#73 = PERSON_AND_ORGANIZATION ( #101, #191 ) ;
#74 = PERSON_AND_ORGANIZATION ( #101, #191 ) ;
#75 = AXIS2_PLACEMENT_3D ( 'NONE', #19, #208, #54 ) ;
#76 = LOCAL_TIME ( 9, 40, 29.00000000000000000, #155 ) ;
#77 = DIRECTION ( 'NONE',  ( -3.491481338843133355E-15, 1.224646799147353207E-16, -1.000000000000000000 ) ) ;
#78 = ORIENTED_EDGE ( 'NONE', *, *, #31, .F. ) ;
#79 = ADVANCED_FACE ( 'NONE', ( #146, #177 ), #13, .T. ) ;
#80 = PLANE ( 'NONE',  #6 ) ;
#81 = CIRCLE ( 'NONE', #58, 2.999999999999996003 ) ;
#82 = UNCERTAINTY_MEASURE_WITH_UNIT (LENGTH_MEASURE( 1.000000000000000082E-05 ), #9, 'distance_accuracy_value', 'NONE');
#83 = DIRECTION ( 'NONE',  ( 0.0000000000000000000, -1.000000000000000000, 0.0000000000000000000 ) ) ;
#84 = DIRECTION ( 'NONE',  ( -4.456761796588771413E-31, -1.000000000000000000, -1.276467311168695266E-16 ) ) ;
#85 = ADVANCED_FACE ( 'NONE', ( #123, #38 ), #199, .T. ) ;
#86 = CARTESIAN_POINT ( 'NONE',  ( -6.413839710158237013E-31, 0.0000000000000000000, -1.836996703606440502E-16 ) ) ;
#87 = AXIS2_PLACEMENT_3D ( 'NONE', #124, #115, #117 ) ;
#88 = VERTEX_POINT ( 'NONE', #28 ) ;
#89 = DIRECTION ( 'NONE',  ( -3.491481338843133355E-15, 1.276467311168695266E-16, -1.000000000000000000 ) ) ;
#90 = APPROVAL_STATUS ( 'not_yet_approved' ) ;
#91 = CALENDAR_DATE ( 2021, 8, 12 ) ;
#92 = APPROVAL_DATE_TIME ( #157, #57 ) ;
#93 = COORDINATED_UNIVERSAL_TIME_OFFSET ( 1, 0, .AHEAD. ) ;
#94 = EDGE_LOOP ( 'NONE', ( #116 ) ) ;
#95 = EDGE_LOOP ( 'NONE', ( #98 ) ) ;
#96 = PRODUCT_DEFINITION_SHAPE ( 'NONE', 'NONE',  #205 ) ;
#97 = APPROVAL_PERSON_ORGANIZATION ( #16, #57, #218 ) ;
#98 = ORIENTED_EDGE ( 'NONE', *, *, #135, .F. ) ;
#99 = CARTESIAN_POINT ( 'NONE',  ( 5.586370142149013368E-14, 2.249639673992778475E-32, 16.00000000000000000 ) ) ;
#100 = DIRECTION ( 'NONE',  ( 3.491481338843133355E-15, -1.276467311168695266E-16, 1.000000000000000000 ) ) ;
#101 = PERSON ( 'UNSPECIFIED', 'UNSPECIFIED', 'UNSPECIFIED', ('UNSPECIFIED'), ('UNSPECIFIED'), ('UNSPECIFIED') ) ;
#102 = VERTEX_POINT ( 'NONE', #131 ) ;
#103 = FACE_OUTER_BOUND ( 'NONE', #94, .T. ) ;
#104 = DIRECTION ( 'NONE',  ( 0.0000000000000000000, -1.000000000000000000, 0.0000000000000000000 ) ) ;
#105 = CC_DESIGN_DATE_AND_TIME_ASSIGNMENT ( #110, #70, ( #205 ) ) ;
#106 = DIRECTION ( 'NONE',  ( 0.0000000000000000000, 1.000000000000000000, 0.0000000000000000000 ) ) ;
#107 = CARTESIAN_POINT ( 'NONE',  ( 0.0000000000000000000, 0.0000000000000000000, 0.0000000000000000000 ) ) ;
#108 = PERSON_AND_ORGANIZATION_ROLE ( 'classification_officer' ) ;
#109 = AXIS2_PLACEMENT_3D ( 'NONE', #8, #166, #214 ) ;
#110 = DATE_AND_TIME ( #34, #129 ) ;
#111 = ADVANCED_FACE ( 'NONE', ( #213 ), #152, .T. ) ;
#112 = CIRCLE ( 'NONE', #198, 2.499999999999998668 ) ;
#113 = AXIS2_PLACEMENT_3D ( 'NONE', #130, #121, #169 ) ;
#114 = DIRECTION ( 'NONE',  ( 4.275831445896959482E-31, 1.000000000000000000, 1.224646799147353207E-16 ) ) ;
#115 = DIRECTION ( 'NONE',  ( 3.491481338843133355E-15, -1.276467311168695266E-16, 1.000000000000000000 ) ) ;
#116 = ORIENTED_EDGE ( 'NONE', *, *, #178, .F. ) ;
#117 = DIRECTION ( 'NONE',  ( -4.456761796588771413E-31, -1.000000000000000000, -1.276467311168695266E-16 ) ) ;
#118 = CARTESIAN_POINT ( 'NONE',  ( 6.237889429661070826E-14, -2.999999999999998224, 17.86602540378443393 ) ) ;
#119 = PRODUCT_RELATED_PRODUCT_CATEGORY ( 'detail', '', ( #206 ) ) ;
#120 =( NAMED_UNIT ( * ) SI_UNIT ( $, .STERADIAN. ) SOLID_ANGLE_UNIT ( ) );
#121 = DIRECTION ( 'NONE',  ( -3.491481338843133355E-15, 1.224646799147353207E-16, -1.000000000000000000 ) ) ;
#122 = COORDINATED_UNIVERSAL_TIME_OFFSET ( 1, 0, .AHEAD. ) ;
#123 = FACE_OUTER_BOUND ( 'NONE', #23, .T. ) ;
#124 = CARTESIAN_POINT ( 'NONE',  ( 1.023725273801283385E-30, -6.087552285867516400E-32, 2.932065717815018504E-16 ) ) ;
#125 = DIRECTION ( 'NONE',  ( -3.491481338843133355E-15, 1.224646799147353207E-16, -1.000000000000000000 ) ) ;
#126 = AXIS2_PLACEMENT_3D ( 'NONE', #43, #184, #65 ) ;
#127 = FACE_OUTER_BOUND ( 'NONE', #61, .T. ) ;
#128 = ORIENTED_EDGE ( 'NONE', *, *, #14, .T. ) ;
#129 = LOCAL_TIME ( 9, 40, 29.00000000000000000, #174 ) ;
#130 = CARTESIAN_POINT ( 'NONE',  ( 2.094888803305880013E-13, 1.874699728327309967E-32, 60.00000000000000000 ) ) ;
#131 = CARTESIAN_POINT ( 'NONE',  ( -9.046517534590797963E-32, -2.499999999999996891, -2.591025601067159308E-17 ) ) ;
#132 = CARTESIAN_POINT ( 'NONE',  ( 6.237889429661070826E-14, -2.280539740844031691E-15, 17.86602540378443393 ) ) ;
#133 =( GEOMETRIC_REPRESENTATION_CONTEXT ( 3 ) GLOBAL_UNCERTAINTY_ASSIGNED_CONTEXT ( ( #82 ) ) GLOBAL_UNIT_ASSIGNED_CONTEXT ( ( #9, #148, #120 ) ) REPRESENTATION_CONTEXT ( 'NONE', 'WORKASPACE' ) );
#134 = PLANE ( 'NONE',  #113 ) ;
#135 = EDGE_CURVE ( 'NONE', #200, #200, #220, .T. ) ;
#136 = APPROVAL_STATUS ( 'not_yet_approved' ) ;
#137 = PERSON_AND_ORGANIZATION ( #101, #191 ) ;
#138 = CC_DESIGN_PERSON_AND_ORGANIZATION_ASSIGNMENT ( #202, #156, ( #37 ) ) ;
#139 = APPROVAL_STATUS ( 'not_yet_approved' ) ;
#140 = ORIENTED_EDGE ( 'NONE', *, *, #141, .F. ) ;
#141 = EDGE_CURVE ( 'NONE', #151, #151, #81, .T. ) ;
#142 = ORIENTED_EDGE ( 'NONE', *, *, #67, .F. ) ;
#143 = EDGE_LOOP ( 'NONE', ( #180 ) ) ;
#144 = CC_DESIGN_APPROVAL ( #204, ( #205 ) ) ;
#145 = ADVANCED_FACE ( 'NONE', ( #103, #201 ), #207, .T. ) ;
#146 = FACE_BOUND ( 'NONE', #192, .T. ) ;
#147 = VERTEX_POINT ( 'NONE', #45 ) ;
#148 =( NAMED_UNIT ( * ) PLANE_ANGLE_UNIT ( ) SI_UNIT ( $, .RADIAN. ) );
#149 = AXIS2_PLACEMENT_3D ( 'NONE', #99, #196, #24 ) ;
#150 = CIRCLE ( 'NONE', #210, 2.999999999999998668 ) ;
#151 = VERTEX_POINT ( 'NONE', #118 ) ;
#152 = PLANE ( 'NONE',  #109 ) ;
#153 = CARTESIAN_POINT ( 'NONE',  ( 5.586370142149013368E-14, -2.499999999999998668, 16.00000000000000000 ) ) ;
#154 = COORDINATED_UNIVERSAL_TIME_OFFSET ( 1, 0, .AHEAD. ) ;
#155 = COORDINATED_UNIVERSAL_TIME_OFFSET ( 1, 0, .AHEAD. ) ;
#156 = PERSON_AND_ORGANIZATION_ROLE ( 'creator' ) ;
#157 = DATE_AND_TIME ( #91, #69 ) ;
#158 = APPROVAL_ROLE ( '' ) ;
#159 = FACE_OUTER_BOUND ( 'NONE', #95, .T. ) ;
#160 = EDGE_LOOP ( 'NONE', ( #4 ) ) ;
#161 = AXIS2_PLACEMENT_3D ( 'NONE', #10, #215, #168 ) ;
#162 = EDGE_LOOP ( 'NONE', ( #164 ) ) ;
#163 = CC_DESIGN_DATE_AND_TIME_ASSIGNMENT ( #175, #36, ( #173 ) ) ;
#164 = ORIENTED_EDGE ( 'NONE', *, *, #178, .T. ) ;
#165 = CARTESIAN_POINT ( 'NONE',  ( 2.077431396611664157E-13, 2.999999999999991562, 59.50000000000000000 ) ) ;
#166 = DIRECTION ( 'NONE',  ( 3.491481338843133355E-15, -1.224646799147353207E-16, 1.000000000000000000 ) ) ;
#167 = CC_DESIGN_PERSON_AND_ORGANIZATION_ASSIGNMENT ( #49, #17, ( #205 ) ) ;
#168 = DIRECTION ( 'NONE',  ( 0.0000000000000000000, 1.000000000000000000, 0.0000000000000000000 ) ) ;
#169 = DIRECTION ( 'NONE',  ( 4.275831445896958607E-31, 1.000000000000000000, 1.224646799147353207E-16 ) ) ;
#170 = DIRECTION ( 'NONE',  ( 0.0000000000000000000, 0.0000000000000000000, 1.000000000000000000 ) ) ;
#171 = CC_DESIGN_PERSON_AND_ORGANIZATION_ASSIGNMENT ( #74, #71, ( #37 ) ) ;
#172 = APPROVAL_ROLE ( '' ) ;
#173 = SECURITY_CLASSIFICATION ( '', '', #219 ) ;
#174 = COORDINATED_UNIVERSAL_TIME_OFFSET ( 1, 0, .AHEAD. ) ;
#175 = DATE_AND_TIME ( #221, #189 ) ;
#176 = CLOSED_SHELL ( 'NONE', ( #26, #145, #222, #79, #21 ) ) ;
#177 = FACE_OUTER_BOUND ( 'NONE', #160, .T. ) ;
#178 = EDGE_CURVE ( 'NONE', #44, #44, #150, .T. ) ;
#179 = AXIS2_PLACEMENT_3D ( 'NONE', #41, #125, #114 ) ;
#180 = ORIENTED_EDGE ( 'NONE', *, *, #67, .T. ) ;
#181 = CC_DESIGN_SECURITY_CLASSIFICATION ( #173, ( #37 ) ) ;
#182 = DIRECTION ( 'NONE',  ( 0.0000000000000000000, 1.000000000000000000, 0.0000000000000000000 ) ) ;
#183 = CARTESIAN_POINT ( 'NONE',  ( -5.344808899709470047E-31, 1.874706600394511987E-32, -1.530814110402897908E-16 ) ) ;
#184 = DIRECTION ( 'NONE',  ( 3.491481338843133355E-15, -1.276467311168695266E-16, 1.000000000000000000 ) ) ;
#185 = CLOSED_SHELL ( 'NONE', ( #111, #85, #64 ) ) ;
#186 = CC_DESIGN_PERSON_AND_ORGANIZATION_ASSIGNMENT ( #137, #108, ( #173 ) ) ;
#187 = DIRECTION ( 'NONE',  ( 3.491481338843133355E-15, -1.276467311168695266E-16, 1.000000000000000000 ) ) ;
#188 = SHAPE_DEFINITION_REPRESENTATION ( #96, #60 ) ;
#189 = LOCAL_TIME ( 9, 40, 29.00000000000000000, #154 ) ;
#190 = APPROVAL_DATE_TIME ( #47, #204 ) ;
#191 = ORGANIZATION ( 'UNSPECIFIED', 'UNSPECIFIED', '' ) ;
#192 = EDGE_LOOP ( 'NONE', ( #212 ) ) ;
#193 = CARTESIAN_POINT ( 'NONE',  ( 2.094888803305880013E-13, -7.347880794884118356E-15, 60.00000000000000000 ) ) ;
#194 = EDGE_LOOP ( 'NONE', ( #40 ) ) ;
#195 = AXIS2_PLACEMENT_3D ( 'NONE', #42, #100, #83 ) ;
#196 = DIRECTION ( 'NONE',  ( 3.491481338843133355E-15, -1.224646799147353207E-16, 1.000000000000000000 ) ) ;
#197 = PLANE ( 'NONE',  #149 ) ;
#198 = AXIS2_PLACEMENT_3D ( 'NONE', #193, #77, #182 ) ;
#199 = CYLINDRICAL_SURFACE ( 'NONE', #2, 2.499999999999996891 ) ;
#200 = VERTEX_POINT ( 'NONE', #153 ) ;
#201 = FACE_BOUND ( 'NONE', #56, .T. ) ;
#202 = PERSON_AND_ORGANIZATION ( #101, #191 ) ;
#203 = APPROVAL_DATE_TIME ( #72, #53 ) ;
#204 = APPROVAL ( #139, 'UNSPECIFIED' ) ;
#205 = PRODUCT_DEFINITION ( 'UNKNOWN', '', #37, #55 ) ;
#206 = PRODUCT ( '372609', '372609', '', ( #66 ) ) ;
#207 = CONICAL_SURFACE ( 'NONE', #161, 2.499999999999998668, 0.7853981633974479459 ) ;
#208 = DIRECTION ( 'NONE',  ( 3.491481338843133355E-15, -1.276467311168695266E-16, 1.000000000000000000 ) ) ;
#209 = EDGE_LOOP ( 'NONE', ( #140 ) ) ;
#210 = AXIS2_PLACEMENT_3D ( 'NONE', #63, #27, #106 ) ;
#211 = MANIFOLD_SOLID_BREP ( 'Corps-Déplacer/Copier1[2]', #185 ) ;
#212 = ORIENTED_EDGE ( 'NONE', *, *, #135, .T. ) ;
#213 = FACE_OUTER_BOUND ( 'NONE', #143, .T. ) ;
#214 = DIRECTION ( 'NONE',  ( -4.275831445896958607E-31, -1.000000000000000000, -1.224646799147353207E-16 ) ) ;
#215 = DIRECTION ( 'NONE',  ( -3.491481338843133355E-15, 1.224646799147353207E-16, -1.000000000000000000 ) ) ;
#216 = MANIFOLD_SOLID_BREP ( 'Corps-Déplacer/Copier1[1]', #176 ) ;
#217 = APPLICATION_CONTEXT ( 'configuration controlled 3d designs of mechanical parts and assemblies' ) ;
#218 = APPROVAL_ROLE ( '' ) ;
#219 = SECURITY_CLASSIFICATION_LEVEL ( 'unclassified' ) ;
#220 = CIRCLE ( 'NONE', #126, 2.499999999999996447 ) ;
#221 = CALENDAR_DATE ( 2021, 8, 12 ) ;
#222 = ADVANCED_FACE ( 'NONE', ( #29 ), #134, .F. ) ;
#223 = CALENDAR_DATE ( 2021, 8, 12 ) ;
ENDSEC;
END-ISO-10303-21;
