ISO-10303-21;
HEADER;
FILE_DESCRIPTION (( 'STEP AP203' ),
    '1' );
FILE_NAME ('372608.step',
    '2021-12-08T08:40:28',
    ( '' ),
    ( '' ),
    'SwSTEP 2.0',
    'SolidWorks 2019',
    '' );
FILE_SCHEMA (( 'CONFIG_CONTROL_DESIGN' ));
ENDSEC;

DATA;
#1 = COORDINATED_UNIVERSAL_TIME_OFFSET ( 1, 0, .AHEAD. ) ;
#2 = AXIS2_PLACEMENT_3D ( 'NONE', #65, #130, #15 ) ;
#3 = PERSON_AND_ORGANIZATION ( #97, #38 ) ;
#4 = PERSON_AND_ORGANIZATION_ROLE ( 'classification_officer' ) ;
#5 = EDGE_CURVE ( 'NONE', #109, #109, #161, .T. ) ;
#6 = PERSON_AND_ORGANIZATION ( #97, #38 ) ;
#7 = APPROVAL_ROLE ( '' ) ;
#8 = CC_DESIGN_PERSON_AND_ORGANIZATION_ASSIGNMENT ( #85, #136, ( #129 ) ) ;
#9 = ORIENTED_EDGE ( 'NONE', *, *, #5, .T. ) ;
#10 = CIRCLE ( 'NONE', #20, 2.499999999999996003 ) ;
#11 = EDGE_LOOP ( 'NONE', ( #12 ) ) ;
#12 = ORIENTED_EDGE ( 'NONE', *, *, #173, .T. ) ;
#13 = APPLICATION_PROTOCOL_DEFINITION ( 'international standard', 'config_control_design', 1994, #143 ) ;
#14 = LOCAL_TIME ( 9, 40, 28.00000000000000000, #195 ) ;
#15 = DIRECTION ( 'NONE',  ( 4.275831445896958607E-31, 1.000000000000000000, 1.224646799147352961E-16 ) ) ;
#16 = CC_DESIGN_PERSON_AND_ORGANIZATION_ASSIGNMENT ( #22, #71, ( #74 ) ) ;
#17 = DIRECTION ( 'NONE',  ( 3.491481338843133355E-15, -1.224646799147353207E-16, 1.000000000000000000 ) ) ;
#18 = CARTESIAN_POINT ( 'NONE',  ( -2.137876538271896752E-31, 2.499999999999992895, -6.123121766362532060E-17 ) ) ;
#19 = PERSON_AND_ORGANIZATION_ROLE ( 'creator' ) ;
#20 = AXIS2_PLACEMENT_3D ( 'NONE', #42, #128, #63 ) ;
#21 = APPROVAL_STATUS ( 'not_yet_approved' ) ;
#22 = PERSON_AND_ORGANIZATION ( #97, #38 ) ;
#23 = AXIS2_PLACEMENT_3D ( 'NONE', #169, #17, #26 ) ;
#24 = ADVANCED_FACE ( 'NONE', ( #87, #198 ), #125, .T. ) ;
#25 = DIRECTION ( 'NONE',  ( 0.0000000000000000000, 1.000000000000000000, 0.0000000000000000000 ) ) ;
#26 = DIRECTION ( 'NONE',  ( -4.275831445896958607E-31, -1.000000000000000000, -1.224646799147353207E-16 ) ) ;
#27 = DIRECTION ( 'NONE',  ( -3.491481338843133355E-15, 1.224646799147353207E-16, -1.000000000000000000 ) ) ;
#28 = PLANE ( 'NONE',  #122 ) ;
#29 = FACE_OUTER_BOUND ( 'NONE', #41, .T. ) ;
#30 = AXIS2_PLACEMENT_3D ( 'NONE', #73, #183, #25 ) ;
#31 = AXIS2_PLACEMENT_3D ( 'NONE', #141, #76, #144 ) ;
#32 = VERTEX_POINT ( 'NONE', #93 ) ;
#33 = DATE_AND_TIME ( #152, #117 ) ;
#34 = DATE_AND_TIME ( #100, #105 ) ;
#35 = CC_DESIGN_SECURITY_CLASSIFICATION ( #47, ( #74 ) ) ;
#36 = APPROVAL_DATE_TIME ( #34, #69 ) ;
#37 = LOCAL_TIME ( 9, 40, 28.00000000000000000, #135 ) ;
#38 = ORGANIZATION ( 'UNSPECIFIED', 'UNSPECIFIED', '' ) ;
#39 = EDGE_LOOP ( 'NONE', ( #40 ) ) ;
#40 = ORIENTED_EDGE ( 'NONE', *, *, #88, .F. ) ;
#41 = EDGE_LOOP ( 'NONE', ( #77 ) ) ;
#42 = CARTESIAN_POINT ( 'NONE',  ( 1.047444401652940007E-13, -3.673940397442059178E-15, 30.00000000000000000 ) ) ;
#43 = CC_DESIGN_DATE_AND_TIME_ASSIGNMENT ( #181, #192, ( #47 ) ) ;
#44 = DIRECTION ( 'NONE',  ( 3.491481338843133355E-15, -1.224646799147353207E-16, 1.000000000000000000 ) ) ;
#45 = DIRECTION ( 'NONE',  ( 4.275831445896958607E-31, 1.000000000000000000, 1.224646799147353207E-16 ) ) ;
#46 = FACE_OUTER_BOUND ( 'NONE', #104, .T. ) ;
#47 = SECURITY_CLASSIFICATION ( '', '', #98 ) ;
#48 = PERSON_AND_ORGANIZATION_ROLE ( 'design_owner' ) ;
#49 = PERSON_AND_ORGANIZATION ( #97, #38 ) ;
#50 = ADVANCED_FACE ( 'NONE', ( #89 ), #156, .F. ) ;
#51 = CARTESIAN_POINT ( 'NONE',  ( 0.0000000000000000000, 0.0000000000000000000, 0.0000000000000000000 ) ) ;
#52 = AXIS2_PLACEMENT_3D ( 'NONE', #79, #172, #199 ) ;
#53 = MECHANICAL_CONTEXT ( 'NONE', #143, 'mechanical' ) ;
#54 = DIRECTION ( 'NONE',  ( 0.0000000000000000000, 0.0000000000000000000, 1.000000000000000000 ) ) ;
#55 = MANIFOLD_SOLID_BREP ( 'Corps-Déplacer/Copier1[1]', #116 ) ;
#56 = DIRECTION ( 'NONE',  ( -4.275831445896958607E-31, -1.000000000000000000, -1.224646799147353207E-16 ) ) ;
#57 = MANIFOLD_SOLID_BREP ( 'Corps-Déplacer/Copier1[2]', #124 ) ;
#58 = AXIS2_PLACEMENT_3D ( 'NONE', #72, #196, #56 ) ;
#59 = CIRCLE ( 'NONE', #52, 2.500000000000001332 ) ;
#60 = PRODUCT_RELATED_PRODUCT_CATEGORY ( 'detail', '', ( #150 ) ) ;
#61 = FACE_OUTER_BOUND ( 'NONE', #142, .T. ) ;
#62 = CYLINDRICAL_SURFACE ( 'NONE', #108, 2.499999999999998668 ) ;
#63 = DIRECTION ( 'NONE',  ( 0.0000000000000000000, 1.000000000000000000, 0.0000000000000000000 ) ) ;
#64 = CIRCLE ( 'NONE', #2, 2.499999999999992895 ) ;
#65 = CARTESIAN_POINT ( 'NONE',  ( -1.282745515301426305E-30, 4.499265603851169331E-32, -3.673929174504626980E-16 ) ) ;
#66 = PERSON_AND_ORGANIZATION ( #97, #38 ) ;
#67 = PRODUCT_DEFINITION_SHAPE ( 'NONE', 'NONE',  #129 ) ;
#68 = DIRECTION ( 'NONE',  ( 1.000000000000000000, 0.0000000000000000000, 0.0000000000000000000 ) ) ;
#69 = APPROVAL ( #21, 'UNSPECIFIED' ) ;
#70 = DATE_AND_TIME ( #119, #162 ) ;
#71 = PERSON_AND_ORGANIZATION_ROLE ( 'design_supplier' ) ;
#72 = CARTESIAN_POINT ( 'NONE',  ( 1.047444401652940007E-13, 1.874699728327314073E-32, 30.00000000000000000 ) ) ;
#73 = CARTESIAN_POINT ( 'NONE',  ( 2.444036937190193601E-13, -8.572527594031472993E-15, 70.00000000000000000 ) ) ;
#74 = PRODUCT_DEFINITION_FORMATION_WITH_SPECIFIED_SOURCE ( 'ANY', '', #150, .NOT_KNOWN. ) ;
#75 = EDGE_LOOP ( 'NONE', ( #167 ) ) ;
#76 = DIRECTION ( 'NONE',  ( -3.491481338843133355E-15, 1.224646799147353207E-16, -1.000000000000000000 ) ) ;
#77 = ORIENTED_EDGE ( 'NONE', *, *, #88, .T. ) ;
#78 = VERTEX_POINT ( 'NONE', #18 ) ;
#79 = CARTESIAN_POINT ( 'NONE',  ( 2.426579530495977493E-13, -8.511295254074105418E-15, 69.50000000000000000 ) ) ;
#80 = DESIGN_CONTEXT ( 'detailed design', #154, 'design' ) ;
#81 = VERTEX_POINT ( 'NONE', #149 ) ;
#82 =( NAMED_UNIT ( * ) SI_UNIT ( $, .STERADIAN. ) SOLID_ANGLE_UNIT ( ) );
#83 = EDGE_CURVE ( 'NONE', #32, #32, #59, .T. ) ;
#84 = APPLICATION_PROTOCOL_DEFINITION ( 'international standard', 'config_control_design', 1994, #154 ) ;
#85 = PERSON_AND_ORGANIZATION ( #97, #38 ) ;
#86 = ORIENTED_EDGE ( 'NONE', *, *, #5, .F. ) ;
#87 = FACE_OUTER_BOUND ( 'NONE', #75, .T. ) ;
#88 = EDGE_CURVE ( 'NONE', #81, #81, #10, .T. ) ;
#89 = FACE_OUTER_BOUND ( 'NONE', #186, .T. ) ;
#90 = CARTESIAN_POINT ( 'NONE',  ( 0.0000000000000000000, 0.0000000000000000000, 0.0000000000000000000 ) ) ;
#91 = CARTESIAN_POINT ( 'NONE',  ( 2.444036937190193601E-13, 1.999999999999992673, 70.00000000000000000 ) ) ;
#92 = EDGE_CURVE ( 'NONE', #201, #201, #189, .T. ) ;
#93 = CARTESIAN_POINT ( 'NONE',  ( 2.426579530495977493E-13, 2.499999999999992895, 69.50000000000000000 ) ) ;
#94 = DIRECTION ( 'NONE',  ( -3.491481338843133355E-15, 1.224646799147353207E-16, -1.000000000000000000 ) ) ;
#95 = APPROVAL_PERSON_ORGANIZATION ( #49, #69, #115 ) ;
#96 = APPROVAL_DATE_TIME ( #33, #110 ) ;
#97 = PERSON ( 'UNSPECIFIED', 'UNSPECIFIED', 'UNSPECIFIED', ('UNSPECIFIED'), ('UNSPECIFIED'), ('UNSPECIFIED') ) ;
#98 = SECURITY_CLASSIFICATION_LEVEL ( 'unclassified' ) ;
#99 = CC_DESIGN_APPROVAL ( #118, ( #74 ) ) ;
#100 = CALENDAR_DATE ( 2021, 8, 12 ) ;
#101 = APPROVAL_PERSON_ORGANIZATION ( #180, #110, #177 ) ;
#102 = ADVANCED_FACE ( 'NONE', ( #146 ), #188, .F. ) ;
#103 = CC_DESIGN_PERSON_AND_ORGANIZATION_ASSIGNMENT ( #6, #19, ( #74 ) ) ;
#104 = EDGE_LOOP ( 'NONE', ( #120 ) ) ;
#105 = LOCAL_TIME ( 9, 40, 28.00000000000000000, #139 ) ;
#106 = EDGE_LOOP ( 'NONE', ( #155 ) ) ;
#107 = DIRECTION ( 'NONE',  ( -3.491481338843133355E-15, 1.224646799147353207E-16, -1.000000000000000000 ) ) ;
#108 = AXIS2_PLACEMENT_3D ( 'NONE', #90, #94, #158 ) ;
#109 = VERTEX_POINT ( 'NONE', #91 ) ;
#110 = APPROVAL ( #114, 'UNSPECIFIED' ) ;
#111 = FACE_OUTER_BOUND ( 'NONE', #39, .T. ) ;
#112 = FACE_OUTER_BOUND ( 'NONE', #11, .T. ) ;
#113 = DIRECTION ( 'NONE',  ( 0.0000000000000000000, 1.000000000000000000, 0.0000000000000000000 ) ) ;
#114 = APPROVAL_STATUS ( 'not_yet_approved' ) ;
#115 = APPROVAL_ROLE ( '' ) ;
#116 = CLOSED_SHELL ( 'NONE', ( #50, #165, #24, #102 ) ) ;
#117 = LOCAL_TIME ( 9, 40, 28.00000000000000000, #1 ) ;
#118 = APPROVAL ( #182, 'UNSPECIFIED' ) ;
#119 = CALENDAR_DATE ( 2021, 8, 12 ) ;
#120 = ORIENTED_EDGE ( 'NONE', *, *, #92, .F. ) ;
#121 = ADVANCED_FACE ( 'NONE', ( #61, #29 ), #148, .T. ) ;
#122 = AXIS2_PLACEMENT_3D ( 'NONE', #176, #44, #159 ) ;
#123 = EDGE_LOOP ( 'NONE', ( #9 ) ) ;
#124 = CLOSED_SHELL ( 'NONE', ( #157, #121, #185 ) ) ;
#125 = CONICAL_SURFACE ( 'NONE', #31, 2.000000000000001332, 0.7853981633974479459 ) ;
#126 = EDGE_LOOP ( 'NONE', ( #86 ) ) ;
#127 = DIRECTION ( 'NONE',  ( -3.491481338843133355E-15, 1.224646799147353207E-16, -1.000000000000000000 ) ) ;
#128 = DIRECTION ( 'NONE',  ( -3.491481338843133355E-15, 1.224646799147353207E-16, -1.000000000000000000 ) ) ;
#129 = PRODUCT_DEFINITION ( 'UNKNOWN', '', #74, #80 ) ;
#130 = DIRECTION ( 'NONE',  ( -3.491481338843133355E-15, 1.224646799147353207E-16, -1.000000000000000000 ) ) ;
#131 = CARTESIAN_POINT ( 'NONE',  ( 2.444036937190193601E-13, 1.499759782661845565E-32, 70.00000000000000000 ) ) ;
#132 = CC_DESIGN_APPROVAL ( #69, ( #47 ) ) ;
#133 = DATE_TIME_ROLE ( 'creation_date' ) ;
#134 = AXIS2_PLACEMENT_3D ( 'NONE', #51, #54, #68 ) ;
#135 = COORDINATED_UNIVERSAL_TIME_OFFSET ( 1, 0, .AHEAD. ) ;
#136 = PERSON_AND_ORGANIZATION_ROLE ( 'creator' ) ;
#137 = CALENDAR_DATE ( 2021, 8, 12 ) ;
#138 = AXIS2_PLACEMENT_3D ( 'NONE', #187, #27, #174 ) ;
#139 = COORDINATED_UNIVERSAL_TIME_OFFSET ( 1, 0, .AHEAD. ) ;
#140 = ORIENTED_EDGE ( 'NONE', *, *, #173, .F. ) ;
#141 = CARTESIAN_POINT ( 'NONE',  ( 2.444036937190193601E-13, -8.572527594031472993E-15, 70.00000000000000000 ) ) ;
#142 = EDGE_LOOP ( 'NONE', ( #140 ) ) ;
#143 = APPLICATION_CONTEXT ( 'configuration controlled 3d designs of mechanical parts and assemblies' ) ;
#144 = DIRECTION ( 'NONE',  ( 0.0000000000000000000, 1.000000000000000000, 0.0000000000000000000 ) ) ;
#145 = ORIENTED_EDGE ( 'NONE', *, *, #92, .T. ) ;
#146 = FACE_OUTER_BOUND ( 'NONE', #126, .T. ) ;
#147 = CC_DESIGN_PERSON_AND_ORGANIZATION_ASSIGNMENT ( #3, #4, ( #47 ) ) ;
#148 = CYLINDRICAL_SURFACE ( 'NONE', #138, 2.499999999999994227 ) ;
#149 = CARTESIAN_POINT ( 'NONE',  ( 1.047444401652940007E-13, 2.499999999999992895, 30.00000000000000000 ) ) ;
#150 = PRODUCT ( '372608', '372608', '', ( #53 ) ) ;
#151 = PERSON_AND_ORGANIZATION ( #97, #38 ) ;
#152 = CALENDAR_DATE ( 2021, 8, 12 ) ;
#153 = APPROVAL_DATE_TIME ( #191, #118 ) ;
#154 = APPLICATION_CONTEXT ( 'configuration controlled 3d designs of mechanical parts and assemblies' ) ;
#155 = ORIENTED_EDGE ( 'NONE', *, *, #83, .T. ) ;
#156 = PLANE ( 'NONE',  #58 ) ;
#157 = ADVANCED_FACE ( 'NONE', ( #112 ), #171, .F. ) ;
#158 = DIRECTION ( 'NONE',  ( 4.275831445896959482E-31, 1.000000000000000000, 1.224646799147353207E-16 ) ) ;
#159 = DIRECTION ( 'NONE',  ( -4.275831445896958607E-31, -1.000000000000000000, -1.224646799147353207E-16 ) ) ;
#160 = CARTESIAN_POINT ( 'NONE',  ( 1.047444401652940007E-13, 2.499999999999992895, 30.00000000000000000 ) ) ;
#161 = CIRCLE ( 'NONE', #30, 2.000000000000001332 ) ;
#162 = LOCAL_TIME ( 9, 40, 28.00000000000000000, #164 ) ;
#163 =( NAMED_UNIT ( * ) PLANE_ANGLE_UNIT ( ) SI_UNIT ( $, .RADIAN. ) );
#164 = COORDINATED_UNIVERSAL_TIME_OFFSET ( 1, 0, .AHEAD. ) ;
#165 = ADVANCED_FACE ( 'NONE', ( #46, #200 ), #62, .T. ) ;
#166 = SHAPE_DEFINITION_REPRESENTATION ( #67, #184 ) ;
#167 = ORIENTED_EDGE ( 'NONE', *, *, #83, .F. ) ;
#168 = CC_DESIGN_APPROVAL ( #110, ( #129 ) ) ;
#169 = CARTESIAN_POINT ( 'NONE',  ( -6.413727576507131527E-31, 2.249632801925584666E-32, -1.836964587252313490E-16 ) ) ;
#170 = APPROVAL_PERSON_ORGANIZATION ( #66, #118, #7 ) ;
#171 = PLANE ( 'NONE',  #23 ) ;
#172 = DIRECTION ( 'NONE',  ( -3.491481338843133355E-15, 1.224646799147353207E-16, -1.000000000000000000 ) ) ;
#173 = EDGE_CURVE ( 'NONE', #78, #78, #64, .T. ) ;
#174 = DIRECTION ( 'NONE',  ( 4.275831445896958607E-31, 1.000000000000000000, 1.224646799147353207E-16 ) ) ;
#175 =( GEOMETRIC_REPRESENTATION_CONTEXT ( 3 ) GLOBAL_UNCERTAINTY_ASSIGNED_CONTEXT ( ( #179 ) ) GLOBAL_UNIT_ASSIGNED_CONTEXT ( ( #203, #163, #82 ) ) REPRESENTATION_CONTEXT ( 'NONE', 'WORKASPACE' ) );
#176 = CARTESIAN_POINT ( 'NONE',  ( 1.047444401652940007E-13, 1.874699728327314073E-32, 30.00000000000000000 ) ) ;
#177 = APPROVAL_ROLE ( '' ) ;
#178 = CC_DESIGN_PERSON_AND_ORGANIZATION_ASSIGNMENT ( #151, #48, ( #150 ) ) ;
#179 = UNCERTAINTY_MEASURE_WITH_UNIT (LENGTH_MEASURE( 1.000000000000000082E-05 ), #203, 'distance_accuracy_value', 'NONE');
#180 = PERSON_AND_ORGANIZATION ( #97, #38 ) ;
#181 = DATE_AND_TIME ( #193, #14 ) ;
#182 = APPROVAL_STATUS ( 'not_yet_approved' ) ;
#183 = DIRECTION ( 'NONE',  ( -3.491481338843133355E-15, 1.224646799147353207E-16, -1.000000000000000000 ) ) ;
#184 = ADVANCED_BREP_SHAPE_REPRESENTATION ( '372608', ( #55, #57, #134 ), #175 ) ;
#185 = ADVANCED_FACE ( 'NONE', ( #111 ), #28, .T. ) ;
#186 = EDGE_LOOP ( 'NONE', ( #145 ) ) ;
#187 = CARTESIAN_POINT ( 'NONE',  ( 0.0000000000000000000, 0.0000000000000000000, 0.0000000000000000000 ) ) ;
#188 = PLANE ( 'NONE',  #197 ) ;
#189 = CIRCLE ( 'NONE', #194, 2.499999999999996003 ) ;
#190 = CARTESIAN_POINT ( 'NONE',  ( 1.047444401652940007E-13, -3.673940397442059178E-15, 30.00000000000000000 ) ) ;
#191 = DATE_AND_TIME ( #137, #37 ) ;
#192 = DATE_TIME_ROLE ( 'classification_date' ) ;
#193 = CALENDAR_DATE ( 2021, 8, 12 ) ;
#194 = AXIS2_PLACEMENT_3D ( 'NONE', #190, #127, #113 ) ;
#195 = COORDINATED_UNIVERSAL_TIME_OFFSET ( 1, 0, .AHEAD. ) ;
#196 = DIRECTION ( 'NONE',  ( 3.491481338843133355E-15, -1.224646799147353207E-16, 1.000000000000000000 ) ) ;
#197 = AXIS2_PLACEMENT_3D ( 'NONE', #131, #107, #45 ) ;
#198 = FACE_BOUND ( 'NONE', #123, .T. ) ;
#199 = DIRECTION ( 'NONE',  ( 0.0000000000000000000, 1.000000000000000000, 0.0000000000000000000 ) ) ;
#200 = FACE_OUTER_BOUND ( 'NONE', #106, .T. ) ;
#201 = VERTEX_POINT ( 'NONE', #160 ) ;
#202 = CC_DESIGN_DATE_AND_TIME_ASSIGNMENT ( #70, #133, ( #129 ) ) ;
#203 =( LENGTH_UNIT ( ) NAMED_UNIT ( * ) SI_UNIT ( .MILLI., .METRE. ) );
ENDSEC;
END-ISO-10303-21;
