ISO-10303-21;
HEADER;
FILE_DESCRIPTION (( 'STEP AP203' ),
    '1' );
FILE_NAME ('372607.step',
    '2021-12-08T08:40:28',
    ( '' ),
    ( '' ),
    'SwSTEP 2.0',
    'SolidWorks 2019',
    '' );
FILE_SCHEMA (( 'CONFIG_CONTROL_DESIGN' ));
ENDSEC;

DATA;
#1 = FACE_OUTER_BOUND ( 'NONE', #109, .T. ) ;
#2 = CC_DESIGN_PERSON_AND_ORGANIZATION_ASSIGNMENT ( #46, #12, ( #32 ) ) ;
#3 = DIRECTION ( 'NONE',  ( 0.0000000000000000000, 1.000000000000000000, 0.0000000000000000000 ) ) ;
#4 = CARTESIAN_POINT ( 'NONE',  ( -6.413709131590228148E-31, 2.249626332319633852E-32, -1.836959304418148623E-16 ) ) ;
#5 = LOCAL_TIME ( 9, 40, 28.00000000000000000, #28 ) ;
#6 = DIRECTION ( 'NONE',  ( 0.0000000000000000000, 1.000000000000000000, 0.0000000000000000000 ) ) ;
#7 = CARTESIAN_POINT ( 'NONE',  ( 2.077431396611664157E-13, 2.499999999999993783, 59.50000000000000000 ) ) ;
#8 = APPROVAL_DATE_TIME ( #164, #168 ) ;
#9 = AXIS2_PLACEMENT_3D ( 'NONE', #37, #185, #6 ) ;
#10 = CALENDAR_DATE ( 2021, 8, 12 ) ;
#11 = PERSON_AND_ORGANIZATION_ROLE ( 'design_owner' ) ;
#12 = PERSON_AND_ORGANIZATION_ROLE ( 'creator' ) ;
#13 = AXIS2_PLACEMENT_3D ( 'NONE', #21, #188, #3 ) ;
#14 = EDGE_LOOP ( 'NONE', ( #96 ) ) ;
#15 = CC_DESIGN_APPROVAL ( #133, ( #202 ) ) ;
#16 = DIRECTION ( 'NONE',  ( -4.275831445896958607E-31, -1.000000000000000000, -1.224646799147353207E-16 ) ) ;
#17 = AXIS2_PLACEMENT_3D ( 'NONE', #145, #73, #88 ) ;
#18 = CARTESIAN_POINT ( 'NONE',  ( -2.137839648438091309E-31, 2.499999999999992895, -6.123016109679233485E-17 ) ) ;
#19 = DIRECTION ( 'NONE',  ( -3.491481338843133355E-15, 1.224646799147353207E-16, -1.000000000000000000 ) ) ;
#20 = CARTESIAN_POINT ( 'NONE',  ( 5.586370142149013368E-14, 2.499999999999992895, 16.00000000000000000 ) ) ;
#21 = CARTESIAN_POINT ( 'NONE',  ( 2.077431396611664157E-13, -7.286648454926750781E-15, 59.50000000000000000 ) ) ;
#22 = ADVANCED_FACE ( 'NONE', ( #33 ), #203, .F. ) ;
#23 = PERSON_AND_ORGANIZATION_ROLE ( 'classification_officer' ) ;
#24 =( NAMED_UNIT ( * ) SI_UNIT ( $, .STERADIAN. ) SOLID_ANGLE_UNIT ( ) );
#25 = CIRCLE ( 'NONE', #137, 2.000000000000001332 ) ;
#26 = EDGE_CURVE ( 'NONE', #99, #99, #25, .T. ) ;
#27 = DATE_AND_TIME ( #10, #58 ) ;
#28 = COORDINATED_UNIVERSAL_TIME_OFFSET ( 1, 0, .AHEAD. ) ;
#29 = ADVANCED_FACE ( 'NONE', ( #155 ), #125, .T. ) ;
#30 = ORGANIZATION ( 'UNSPECIFIED', 'UNSPECIFIED', '' ) ;
#31 = CC_DESIGN_PERSON_AND_ORGANIZATION_ASSIGNMENT ( #194, #197, ( #159 ) ) ;
#32 = PRODUCT_DEFINITION ( 'UNKNOWN', '', #159, #54 ) ;
#33 = FACE_OUTER_BOUND ( 'NONE', #135, .T. ) ;
#34 = EDGE_LOOP ( 'NONE', ( #165 ) ) ;
#35 = ADVANCED_FACE ( 'NONE', ( #112, #42 ), #144, .T. ) ;
#36 = UNCERTAINTY_MEASURE_WITH_UNIT (LENGTH_MEASURE( 1.000000000000000082E-05 ), #126, 'distance_accuracy_value', 'NONE');
#37 = CARTESIAN_POINT ( 'NONE',  ( 5.586370142149013368E-14, -1.959434878635765131E-15, 16.00000000000000000 ) ) ;
#38 = DIRECTION ( 'NONE',  ( -3.491481338843133355E-15, 1.224646799147353207E-16, -1.000000000000000000 ) ) ;
#39 = CC_DESIGN_APPROVAL ( #168, ( #159 ) ) ;
#40 = CARTESIAN_POINT ( 'NONE',  ( 0.0000000000000000000, 0.0000000000000000000, 0.0000000000000000000 ) ) ;
#41 = CARTESIAN_POINT ( 'NONE',  ( 2.094888803305880013E-13, -7.347880794884118356E-15, 60.00000000000000000 ) ) ;
#42 = FACE_OUTER_BOUND ( 'NONE', #201, .T. ) ;
#43 = APPROVAL_PERSON_ORGANIZATION ( #93, #133, #106 ) ;
#44 = APPROVAL_STATUS ( 'not_yet_approved' ) ;
#45 = DIRECTION ( 'NONE',  ( 0.0000000000000000000, 0.0000000000000000000, 1.000000000000000000 ) ) ;
#46 = PERSON_AND_ORGANIZATION ( #149, #30 ) ;
#47 = COORDINATED_UNIVERSAL_TIME_OFFSET ( 1, 0, .AHEAD. ) ;
#48 = CONICAL_SURFACE ( 'NONE', #143, 2.000000000000001332, 0.7853981633974479459 ) ;
#49 = EDGE_LOOP ( 'NONE', ( #68 ) ) ;
#50 = ADVANCED_FACE ( 'NONE', ( #170 ), #192, .F. ) ;
#51 = AXIS2_PLACEMENT_3D ( 'NONE', #59, #19, #116 ) ;
#52 = APPROVAL ( #146, 'UNSPECIFIED' ) ;
#53 = CARTESIAN_POINT ( 'NONE',  ( 5.586370142149013368E-14, 2.499999999999992895, 16.00000000000000000 ) ) ;
#54 = DESIGN_CONTEXT ( 'detailed design', #67, 'design' ) ;
#55 = DIRECTION ( 'NONE',  ( 3.491481338843133355E-15, -1.224646799147353207E-16, 1.000000000000000000 ) ) ;
#56 = DIRECTION ( 'NONE',  ( 3.491481338843133355E-15, -1.224646799147353207E-16, 1.000000000000000000 ) ) ;
#57 = AXIS2_PLACEMENT_3D ( 'NONE', #186, #55, #72 ) ;
#58 = LOCAL_TIME ( 9, 40, 28.00000000000000000, #147 ) ;
#59 = CARTESIAN_POINT ( 'NONE',  ( -1.282741826318045630E-30, 4.499252664639267704E-32, -3.673918608836297245E-16 ) ) ;
#60 = PRODUCT_DEFINITION_SHAPE ( 'NONE', 'NONE',  #32 ) ;
#61 = FACE_BOUND ( 'NONE', #181, .T. ) ;
#62 = APPLICATION_PROTOCOL_DEFINITION ( 'international standard', 'config_control_design', 1994, #86 ) ;
#63 = PERSON_AND_ORGANIZATION ( #149, #30 ) ;
#64 = DATE_AND_TIME ( #179, #94 ) ;
#65 = CIRCLE ( 'NONE', #9, 2.499999999999995115 ) ;
#66 = DATE_AND_TIME ( #195, #114 ) ;
#67 = APPLICATION_CONTEXT ( 'configuration controlled 3d designs of mechanical parts and assemblies' ) ;
#68 = ORIENTED_EDGE ( 'NONE', *, *, #82, .T. ) ;
#69 = CIRCLE ( 'NONE', #152, 2.499999999999995115 ) ;
#70 = AXIS2_PLACEMENT_3D ( 'NONE', #4, #56, #16 ) ;
#71 = FACE_OUTER_BOUND ( 'NONE', #14, .T. ) ;
#72 = DIRECTION ( 'NONE',  ( -4.275831445896958607E-31, -1.000000000000000000, -1.224646799147353207E-16 ) ) ;
#73 = DIRECTION ( 'NONE',  ( -3.491481338843133355E-15, 1.224646799147353207E-16, -1.000000000000000000 ) ) ;
#74 = CARTESIAN_POINT ( 'NONE',  ( 5.586370142149013368E-14, 1.874699728327315441E-32, 16.00000000000000000 ) ) ;
#75 = COORDINATED_UNIVERSAL_TIME_OFFSET ( 1, 0, .AHEAD. ) ;
#76 = APPROVAL_ROLE ( '' ) ;
#77 = AXIS2_PLACEMENT_3D ( 'NONE', #74, #173, #169 ) ;
#78 = DATE_TIME_ROLE ( 'classification_date' ) ;
#79 = PERSON_AND_ORGANIZATION ( #149, #30 ) ;
#80 = CLOSED_SHELL ( 'NONE', ( #191, #199, #29 ) ) ;
#81 = CC_DESIGN_PERSON_AND_ORGANIZATION_ASSIGNMENT ( #79, #163, ( #159 ) ) ;
#82 = EDGE_CURVE ( 'NONE', #157, #157, #69, .T. ) ;
#83 = EDGE_LOOP ( 'NONE', ( #167 ) ) ;
#84 = EDGE_LOOP ( 'NONE', ( #153 ) ) ;
#85 = EDGE_CURVE ( 'NONE', #102, #102, #65, .T. ) ;
#86 = APPLICATION_CONTEXT ( 'configuration controlled 3d designs of mechanical parts and assemblies' ) ;
#87 = CC_DESIGN_APPROVAL ( #52, ( #32 ) ) ;
#88 = DIRECTION ( 'NONE',  ( 4.275831445896959482E-31, 1.000000000000000000, 1.224646799147353454E-16 ) ) ;
#89 = DIRECTION ( 'NONE',  ( 0.0000000000000000000, 1.000000000000000000, 0.0000000000000000000 ) ) ;
#90 = CARTESIAN_POINT ( 'NONE',  ( 2.094888803305880013E-13, 1.499759782661847481E-32, 60.00000000000000000 ) ) ;
#91 = CC_DESIGN_SECURITY_CLASSIFICATION ( #202, ( #159 ) ) ;
#92 = FACE_OUTER_BOUND ( 'NONE', #198, .T. ) ;
#93 = PERSON_AND_ORGANIZATION ( #149, #30 ) ;
#94 = LOCAL_TIME ( 9, 40, 28.00000000000000000, #47 ) ;
#95 = PERSON_AND_ORGANIZATION ( #149, #30 ) ;
#96 = ORIENTED_EDGE ( 'NONE', *, *, #85, .T. ) ;
#97 = PLANE ( 'NONE',  #70 ) ;
#98 = APPROVAL_PERSON_ORGANIZATION ( #95, #168, #107 ) ;
#99 = VERTEX_POINT ( 'NONE', #128 ) ;
#100 = DIRECTION ( 'NONE',  ( -3.491481338843133355E-15, 1.224646799147353207E-16, -1.000000000000000000 ) ) ;
#101 = DIRECTION ( 'NONE',  ( -3.491481338843133355E-15, 1.224646799147353207E-16, -1.000000000000000000 ) ) ;
#102 = VERTEX_POINT ( 'NONE', #53 ) ;
#103 = CC_DESIGN_DATE_AND_TIME_ASSIGNMENT ( #131, #105, ( #32 ) ) ;
#104 = PERSON_AND_ORGANIZATION ( #149, #30 ) ;
#105 = DATE_TIME_ROLE ( 'creation_date' ) ;
#106 = APPROVAL_ROLE ( '' ) ;
#107 = APPROVAL_ROLE ( '' ) ;
#108 = CARTESIAN_POINT ( 'NONE',  ( 0.0000000000000000000, 0.0000000000000000000, 0.0000000000000000000 ) ) ;
#109 = EDGE_LOOP ( 'NONE', ( #123 ) ) ;
#110 = ORIENTED_EDGE ( 'NONE', *, *, #111, .T. ) ;
#111 = EDGE_CURVE ( 'NONE', #160, #160, #189, .T. ) ;
#112 = FACE_OUTER_BOUND ( 'NONE', #84, .T. ) ;
#113 = AXIS2_PLACEMENT_3D ( 'NONE', #90, #101, #117 ) ;
#114 = LOCAL_TIME ( 9, 40, 28.00000000000000000, #134 ) ;
#115 = CARTESIAN_POINT ( 'NONE',  ( 2.094888803305880013E-13, -7.347880794884118356E-15, 60.00000000000000000 ) ) ;
#116 = DIRECTION ( 'NONE',  ( 4.275831445896958607E-31, 1.000000000000000000, 1.224646799147352961E-16 ) ) ;
#117 = DIRECTION ( 'NONE',  ( 4.275831445896958607E-31, 1.000000000000000000, 1.224646799147353207E-16 ) ) ;
#118 = APPROVAL_DATE_TIME ( #64, #52 ) ;
#119 = MANIFOLD_SOLID_BREP ( 'Corps-Déplacer/Copier1[2]', #80 ) ;
#120 = ORIENTED_EDGE ( 'NONE', *, *, #139, .T. ) ;
#121 = CC_DESIGN_DATE_AND_TIME_ASSIGNMENT ( #27, #78, ( #202 ) ) ;
#122 = LOCAL_TIME ( 9, 40, 28.00000000000000000, #75 ) ;
#123 = ORIENTED_EDGE ( 'NONE', *, *, #139, .F. ) ;
#124 = VERTEX_POINT ( 'NONE', #18 ) ;
#125 = PLANE ( 'NONE',  #57 ) ;
#126 =( LENGTH_UNIT ( ) NAMED_UNIT ( * ) SI_UNIT ( .MILLI., .METRE. ) );
#127 = PRODUCT ( '372607', '372607', '', ( #180 ) ) ;
#128 = CARTESIAN_POINT ( 'NONE',  ( 2.094888803305880013E-13, 1.999999999999994005, 60.00000000000000000 ) ) ;
#129 = DIRECTION ( 'NONE',  ( 0.0000000000000000000, 1.000000000000000000, 0.0000000000000000000 ) ) ;
#130 = PERSON_AND_ORGANIZATION ( #149, #30 ) ;
#131 = DATE_AND_TIME ( #161, #5 ) ;
#132 = APPROVAL_STATUS ( 'not_yet_approved' ) ;
#133 = APPROVAL ( #132, 'UNSPECIFIED' ) ;
#134 = COORDINATED_UNIVERSAL_TIME_OFFSET ( 1, 0, .AHEAD. ) ;
#135 = EDGE_LOOP ( 'NONE', ( #138 ) ) ;
#136 = ORIENTED_EDGE ( 'NONE', *, *, #26, .T. ) ;
#137 = AXIS2_PLACEMENT_3D ( 'NONE', #115, #172, #89 ) ;
#138 = ORIENTED_EDGE ( 'NONE', *, *, #26, .F. ) ;
#139 = EDGE_CURVE ( 'NONE', #124, #124, #171, .T. ) ;
#140 = CYLINDRICAL_SURFACE ( 'NONE', #17, 2.499999999999993783 ) ;
#141 = DIRECTION ( 'NONE',  ( 0.0000000000000000000, 1.000000000000000000, 0.0000000000000000000 ) ) ;
#142 = CARTESIAN_POINT ( 'NONE',  ( 5.586370142149013368E-14, -1.959434878635765131E-15, 16.00000000000000000 ) ) ;
#143 = AXIS2_PLACEMENT_3D ( 'NONE', #41, #190, #129 ) ;
#144 = CYLINDRICAL_SURFACE ( 'NONE', #148, 2.499999999999998224 ) ;
#145 = CARTESIAN_POINT ( 'NONE',  ( 0.0000000000000000000, 0.0000000000000000000, 0.0000000000000000000 ) ) ;
#146 = APPROVAL_STATUS ( 'not_yet_approved' ) ;
#147 = COORDINATED_UNIVERSAL_TIME_OFFSET ( 1, 0, .AHEAD. ) ;
#148 = AXIS2_PLACEMENT_3D ( 'NONE', #40, #100, #174 ) ;
#149 = PERSON ( 'UNSPECIFIED', 'UNSPECIFIED', 'UNSPECIFIED', ('UNSPECIFIED'), ('UNSPECIFIED'), ('UNSPECIFIED') ) ;
#150 = CALENDAR_DATE ( 2021, 8, 12 ) ;
#151 = APPROVAL_DATE_TIME ( #66, #133 ) ;
#152 = AXIS2_PLACEMENT_3D ( 'NONE', #142, #38, #141 ) ;
#153 = ORIENTED_EDGE ( 'NONE', *, *, #82, .F. ) ;
#154 = AXIS2_PLACEMENT_3D ( 'NONE', #108, #45, #177 ) ;
#155 = FACE_OUTER_BOUND ( 'NONE', #83, .T. ) ;
#156 = FACE_OUTER_BOUND ( 'NONE', #34, .T. ) ;
#157 = VERTEX_POINT ( 'NONE', #20 ) ;
#158 = ADVANCED_BREP_SHAPE_REPRESENTATION ( '372607', ( #187, #119, #154 ), #182 ) ;
#159 = PRODUCT_DEFINITION_FORMATION_WITH_SPECIFIED_SOURCE ( 'ANY', '', #127, .NOT_KNOWN. ) ;
#160 = VERTEX_POINT ( 'NONE', #7 ) ;
#161 = CALENDAR_DATE ( 2021, 8, 12 ) ;
#162 = SECURITY_CLASSIFICATION_LEVEL ( 'unclassified' ) ;
#163 = PERSON_AND_ORGANIZATION_ROLE ( 'creator' ) ;
#164 = DATE_AND_TIME ( #150, #122 ) ;
#165 = ORIENTED_EDGE ( 'NONE', *, *, #111, .F. ) ;
#166 = PRODUCT_RELATED_PRODUCT_CATEGORY ( 'detail', '', ( #127 ) ) ;
#167 = ORIENTED_EDGE ( 'NONE', *, *, #85, .F. ) ;
#168 = APPROVAL ( #44, 'UNSPECIFIED' ) ;
#169 = DIRECTION ( 'NONE',  ( -4.275831445896958607E-31, -1.000000000000000000, -1.224646799147353207E-16 ) ) ;
#170 = FACE_OUTER_BOUND ( 'NONE', #49, .T. ) ;
#171 = CIRCLE ( 'NONE', #51, 2.499999999999992895 ) ;
#172 = DIRECTION ( 'NONE',  ( -3.491481338843133355E-15, 1.224646799147353207E-16, -1.000000000000000000 ) ) ;
#173 = DIRECTION ( 'NONE',  ( 3.491481338843133355E-15, -1.224646799147353207E-16, 1.000000000000000000 ) ) ;
#174 = DIRECTION ( 'NONE',  ( 4.275831445896959482E-31, 1.000000000000000000, 1.224646799147353454E-16 ) ) ;
#175 = APPROVAL_PERSON_ORGANIZATION ( #63, #52, #76 ) ;
#176 =( NAMED_UNIT ( * ) PLANE_ANGLE_UNIT ( ) SI_UNIT ( $, .RADIAN. ) );
#177 = DIRECTION ( 'NONE',  ( 1.000000000000000000, 0.0000000000000000000, 0.0000000000000000000 ) ) ;
#178 = CC_DESIGN_PERSON_AND_ORGANIZATION_ASSIGNMENT ( #130, #23, ( #202 ) ) ;
#179 = CALENDAR_DATE ( 2021, 8, 12 ) ;
#180 = MECHANICAL_CONTEXT ( 'NONE', #86, 'mechanical' ) ;
#181 = EDGE_LOOP ( 'NONE', ( #136 ) ) ;
#182 =( GEOMETRIC_REPRESENTATION_CONTEXT ( 3 ) GLOBAL_UNCERTAINTY_ASSIGNED_CONTEXT ( ( #36 ) ) GLOBAL_UNIT_ASSIGNED_CONTEXT ( ( #126, #176, #24 ) ) REPRESENTATION_CONTEXT ( 'NONE', 'WORKASPACE' ) );
#183 = CC_DESIGN_PERSON_AND_ORGANIZATION_ASSIGNMENT ( #104, #11, ( #127 ) ) ;
#184 = ADVANCED_FACE ( 'NONE', ( #156, #61 ), #48, .T. ) ;
#185 = DIRECTION ( 'NONE',  ( -3.491481338843133355E-15, 1.224646799147353207E-16, -1.000000000000000000 ) ) ;
#186 = CARTESIAN_POINT ( 'NONE',  ( 5.586370142149013368E-14, 1.874699728327315441E-32, 16.00000000000000000 ) ) ;
#187 = MANIFOLD_SOLID_BREP ( 'Corps-Déplacer/Copier1[1]', #200 ) ;
#188 = DIRECTION ( 'NONE',  ( -3.491481338843133355E-15, 1.224646799147353207E-16, -1.000000000000000000 ) ) ;
#189 = CIRCLE ( 'NONE', #13, 2.500000000000001332 ) ;
#190 = DIRECTION ( 'NONE',  ( -3.491481338843133355E-15, 1.224646799147353207E-16, -1.000000000000000000 ) ) ;
#191 = ADVANCED_FACE ( 'NONE', ( #92 ), #97, .F. ) ;
#192 = PLANE ( 'NONE',  #77 ) ;
#193 = SHAPE_DEFINITION_REPRESENTATION ( #60, #158 ) ;
#194 = PERSON_AND_ORGANIZATION ( #149, #30 ) ;
#195 = CALENDAR_DATE ( 2021, 8, 12 ) ;
#196 = APPLICATION_PROTOCOL_DEFINITION ( 'international standard', 'config_control_design', 1994, #67 ) ;
#197 = PERSON_AND_ORGANIZATION_ROLE ( 'design_supplier' ) ;
#198 = EDGE_LOOP ( 'NONE', ( #120 ) ) ;
#199 = ADVANCED_FACE ( 'NONE', ( #1, #71 ), #140, .T. ) ;
#200 = CLOSED_SHELL ( 'NONE', ( #50, #35, #184, #22 ) ) ;
#201 = EDGE_LOOP ( 'NONE', ( #110 ) ) ;
#202 = SECURITY_CLASSIFICATION ( '', '', #162 ) ;
#203 = PLANE ( 'NONE',  #113 ) ;
ENDSEC;
END-ISO-10303-21;
