ISO-10303-21;
HEADER;
FILE_DESCRIPTION (( 'STEP AP203' ),
    '1' );
FILE_NAME ('372606.step',
    '2021-12-08T08:40:27',
    ( '' ),
    ( '' ),
    'SwSTEP 2.0',
    'SolidWorks 2019',
    '' );
FILE_SCHEMA (( 'CONFIG_CONTROL_DESIGN' ));
ENDSEC;

DATA;
#1 = DIRECTION ( 'NONE',  ( -3.491481338843133355E-15, 1.224646799147353207E-16, -1.000000000000000000 ) ) ;
#2 = CC_DESIGN_PERSON_AND_ORGANIZATION_ASSIGNMENT ( #156, #11, ( #191 ) ) ;
#3 = DIRECTION ( 'NONE',  ( -3.491481338843133355E-15, 1.224646799147353207E-16, -1.000000000000000000 ) ) ;
#4 = DIRECTION ( 'NONE',  ( 4.275831445896958607E-31, 1.000000000000000000, 1.224646799147352961E-16 ) ) ;
#5 = DIRECTION ( 'NONE',  ( 0.0000000000000000000, 1.000000000000000000, 0.0000000000000000000 ) ) ;
#6 = DIRECTION ( 'NONE',  ( -4.275831445896958607E-31, -1.000000000000000000, -1.224646799147353207E-16 ) ) ;
#7 = CARTESIAN_POINT ( 'NONE',  ( 1.745740669421566678E-13, 1.999999999999992673, 50.00000000000000000 ) ) ;
#8 = CC_DESIGN_DATE_AND_TIME_ASSIGNMENT ( #129, #109, ( #151 ) ) ;
#9 = DIRECTION ( 'NONE',  ( 0.0000000000000000000, 0.0000000000000000000, 1.000000000000000000 ) ) ;
#10 = CC_DESIGN_APPROVAL ( #173, ( #191 ) ) ;
#11 = PERSON_AND_ORGANIZATION_ROLE ( 'creator' ) ;
#12 = CALENDAR_DATE ( 2021, 8, 12 ) ;
#13 = COORDINATED_UNIVERSAL_TIME_OFFSET ( 1, 0, .AHEAD. ) ;
#14 = LOCAL_TIME ( 9, 40, 27.00000000000000000, #61 ) ;
#15 = CC_DESIGN_DATE_AND_TIME_ASSIGNMENT ( #112, #170, ( #191 ) ) ;
#16 = VERTEX_POINT ( 'NONE', #145 ) ;
#17 = ORIENTED_EDGE ( 'NONE', *, *, #25, .F. ) ;
#18 = DIRECTION ( 'NONE',  ( -3.491481338843133355E-15, 1.224646799147353207E-16, -1.000000000000000000 ) ) ;
#19 = AXIS2_PLACEMENT_3D ( 'NONE', #180, #35, #104 ) ;
#20 = CARTESIAN_POINT ( 'NONE',  ( 5.586370142149013368E-14, 2.499999999999992895, 16.00000000000000000 ) ) ;
#21 = CARTESIAN_POINT ( 'NONE',  ( 1.745740669421566678E-13, -6.123233995736766085E-15, 50.00000000000000000 ) ) ;
#22 = PERSON_AND_ORGANIZATION_ROLE ( 'creator' ) ;
#23 = PRODUCT_DEFINITION_SHAPE ( 'NONE', 'NONE',  #191 ) ;
#24 = PERSON_AND_ORGANIZATION ( #121, #128 ) ;
#25 = EDGE_CURVE ( 'NONE', #16, #16, #178, .T. ) ;
#26 = SECURITY_CLASSIFICATION_LEVEL ( 'unclassified' ) ;
#27 = ORIENTED_EDGE ( 'NONE', *, *, #28, .T. ) ;
#28 = EDGE_CURVE ( 'NONE', #67, #67, #120, .T. ) ;
#29 = ORIENTED_EDGE ( 'NONE', *, *, #25, .T. ) ;
#30 = EDGE_LOOP ( 'NONE', ( #63 ) ) ;
#31 = EDGE_LOOP ( 'NONE', ( #98 ) ) ;
#32 = CARTESIAN_POINT ( 'NONE',  ( 0.0000000000000000000, 0.0000000000000000000, 0.0000000000000000000 ) ) ;
#33 = APPROVAL_PERSON_ORGANIZATION ( #165, #187, #188 ) ;
#34 = DIRECTION ( 'NONE',  ( -3.491481338843133355E-15, 1.224646799147353207E-16, -1.000000000000000000 ) ) ;
#35 = DIRECTION ( 'NONE',  ( -3.491481338843133355E-15, 1.224646799147353207E-16, -1.000000000000000000 ) ) ;
#36 = EDGE_LOOP ( 'NONE', ( #202 ) ) ;
#37 = AXIS2_PLACEMENT_3D ( 'NONE', #148, #194, #6 ) ;
#38 = APPLICATION_PROTOCOL_DEFINITION ( 'international standard', 'config_control_design', 1994, #143 ) ;
#39 = CALENDAR_DATE ( 2021, 8, 12 ) ;
#40 = APPROVAL_PERSON_ORGANIZATION ( #41, #173, #154 ) ;
#41 = PERSON_AND_ORGANIZATION ( #121, #128 ) ;
#42 = AXIS2_PLACEMENT_3D ( 'NONE', #21, #18, #5 ) ;
#43 = DESIGN_CONTEXT ( 'detailed design', #96, 'design' ) ;
#44 = ADVANCED_FACE ( 'NONE', ( #196 ), #134, .T. ) ;
#45 = MANIFOLD_SOLID_BREP ( 'Corps-Déplacer/Copier1[1]', #97 ) ;
#46 = ORIENTED_EDGE ( 'NONE', *, *, #114, .T. ) ;
#47 = CYLINDRICAL_SURFACE ( 'NONE', #81, 2.499999999999993339 ) ;
#48 = DIRECTION ( 'NONE',  ( 0.0000000000000000000, 1.000000000000000000, 0.0000000000000000000 ) ) ;
#49 = DIRECTION ( 'NONE',  ( -3.491481338843133355E-15, 1.224646799147353207E-16, -1.000000000000000000 ) ) ;
#50 = CLOSED_SHELL ( 'NONE', ( #203, #64, #44 ) ) ;
#51 = FACE_OUTER_BOUND ( 'NONE', #66, .T. ) ;
#52 = DIRECTION ( 'NONE',  ( -3.491481338843133355E-15, 1.224646799147353207E-16, -1.000000000000000000 ) ) ;
#53 =( NAMED_UNIT ( * ) SI_UNIT ( $, .STERADIAN. ) SOLID_ANGLE_UNIT ( ) );
#54 = PRODUCT_DEFINITION_FORMATION_WITH_SPECIFIED_SOURCE ( 'ANY', '', #58, .NOT_KNOWN. ) ;
#55 = AXIS2_PLACEMENT_3D ( 'NONE', #164, #193, #88 ) ;
#56 = PERSON_AND_ORGANIZATION ( #121, #128 ) ;
#57 = CC_DESIGN_PERSON_AND_ORGANIZATION_ASSIGNMENT ( #140, #22, ( #54 ) ) ;
#58 = PRODUCT ( '372606', '372606', '', ( #166 ) ) ;
#59 =( LENGTH_UNIT ( ) NAMED_UNIT ( * ) SI_UNIT ( .MILLI., .METRE. ) );
#60 = CC_DESIGN_APPROVAL ( #187, ( #151 ) ) ;
#61 = COORDINATED_UNIVERSAL_TIME_OFFSET ( 1, 0, .AHEAD. ) ;
#62 = CC_DESIGN_PERSON_AND_ORGANIZATION_ASSIGNMENT ( #95, #158, ( #151 ) ) ;
#63 = ORIENTED_EDGE ( 'NONE', *, *, #114, .F. ) ;
#64 = ADVANCED_FACE ( 'NONE', ( #136, #51 ), #47, .T. ) ;
#65 = LOCAL_TIME ( 9, 40, 27.00000000000000000, #172 ) ;
#66 = EDGE_LOOP ( 'NONE', ( #27 ) ) ;
#67 = VERTEX_POINT ( 'NONE', #20 ) ;
#68 = EDGE_LOOP ( 'NONE', ( #29 ) ) ;
#69 =( GEOMETRIC_REPRESENTATION_CONTEXT ( 3 ) GLOBAL_UNCERTAINTY_ASSIGNED_CONTEXT ( ( #78 ) ) GLOBAL_UNIT_ASSIGNED_CONTEXT ( ( #59, #127, #53 ) ) REPRESENTATION_CONTEXT ( 'NONE', 'WORKASPACE' ) );
#70 = DIRECTION ( 'NONE',  ( 4.275831445896958607E-31, 1.000000000000000000, 1.224646799147353207E-16 ) ) ;
#71 = CARTESIAN_POINT ( 'NONE',  ( 1.745740669421566678E-13, 1.499759782661847481E-32, 50.00000000000000000 ) ) ;
#72 = ORIENTED_EDGE ( 'NONE', *, *, #149, .T. ) ;
#73 = VERTEX_POINT ( 'NONE', #7 ) ;
#74 = APPROVAL_DATE_TIME ( #157, #105 ) ;
#75 = ADVANCED_FACE ( 'NONE', ( #85, #123 ), #115, .T. ) ;
#76 = CALENDAR_DATE ( 2021, 8, 12 ) ;
#77 = SHAPE_DEFINITION_REPRESENTATION ( #23, #79 ) ;
#78 = UNCERTAINTY_MEASURE_WITH_UNIT (LENGTH_MEASURE( 1.000000000000000082E-05 ), #59, 'distance_accuracy_value', 'NONE');
#79 = ADVANCED_BREP_SHAPE_REPRESENTATION ( '372606', ( #45, #183, #102 ), #69 ) ;
#80 = CC_DESIGN_APPROVAL ( #105, ( #54 ) ) ;
#81 = AXIS2_PLACEMENT_3D ( 'NONE', #32, #161, #122 ) ;
#82 = CARTESIAN_POINT ( 'NONE',  ( -6.413727576507131527E-31, 2.249632801925584666E-32, -1.836964587252313490E-16 ) ) ;
#83 = CIRCLE ( 'NONE', #108, 2.499999999999994671 ) ;
#84 = FACE_OUTER_BOUND ( 'NONE', #182, .T. ) ;
#85 = FACE_OUTER_BOUND ( 'NONE', #30, .T. ) ;
#86 = DIRECTION ( 'NONE',  ( 3.491481338843133355E-15, -1.224646799147353207E-16, 1.000000000000000000 ) ) ;
#87 = EDGE_LOOP ( 'NONE', ( #147 ) ) ;
#88 = DIRECTION ( 'NONE',  ( -4.275831445896958607E-31, -1.000000000000000000, -1.224646799147353207E-16 ) ) ;
#89 = PERSON_AND_ORGANIZATION ( #121, #128 ) ;
#90 = PERSON_AND_ORGANIZATION_ROLE ( 'design_owner' ) ;
#91 = EDGE_LOOP ( 'NONE', ( #176 ) ) ;
#92 = CALENDAR_DATE ( 2021, 8, 12 ) ;
#93 = AXIS2_PLACEMENT_3D ( 'NONE', #119, #34, #4 ) ;
#94 = APPROVAL_ROLE ( '' ) ;
#95 = PERSON_AND_ORGANIZATION ( #121, #128 ) ;
#96 = APPLICATION_CONTEXT ( 'configuration controlled 3d designs of mechanical parts and assemblies' ) ;
#97 = CLOSED_SHELL ( 'NONE', ( #144, #99, #75, #107 ) ) ;
#98 = ORIENTED_EDGE ( 'NONE', *, *, #184, .F. ) ;
#99 = ADVANCED_FACE ( 'NONE', ( #179, #84 ), #146, .T. ) ;
#100 = FACE_OUTER_BOUND ( 'NONE', #31, .T. ) ;
#101 = CARTESIAN_POINT ( 'NONE',  ( 5.586370142149013368E-14, -1.959434878635765131E-15, 16.00000000000000000 ) ) ;
#102 = AXIS2_PLACEMENT_3D ( 'NONE', #110, #9, #186 ) ;
#103 = PLANE ( 'NONE',  #190 ) ;
#104 = DIRECTION ( 'NONE',  ( 4.275831445896959482E-31, 1.000000000000000000, 1.224646799147353207E-16 ) ) ;
#105 = APPROVAL ( #113, 'UNSPECIFIED' ) ;
#106 = DIRECTION ( 'NONE',  ( 0.0000000000000000000, 1.000000000000000000, 0.0000000000000000000 ) ) ;
#107 = ADVANCED_FACE ( 'NONE', ( #100 ), #103, .F. ) ;
#108 = AXIS2_PLACEMENT_3D ( 'NONE', #137, #3, #192 ) ;
#109 = DATE_TIME_ROLE ( 'classification_date' ) ;
#110 = CARTESIAN_POINT ( 'NONE',  ( 0.0000000000000000000, 0.0000000000000000000, 0.0000000000000000000 ) ) ;
#111 = COORDINATED_UNIVERSAL_TIME_OFFSET ( 1, 0, .AHEAD. ) ;
#112 = DATE_AND_TIME ( #39, #195 ) ;
#113 = APPROVAL_STATUS ( 'not_yet_approved' ) ;
#114 = EDGE_CURVE ( 'NONE', #117, #117, #155, .T. ) ;
#115 = CONICAL_SURFACE ( 'NONE', #42, 1.999999999999998668, 0.7853981633974479459 ) ;
#116 = CC_DESIGN_PERSON_AND_ORGANIZATION_ASSIGNMENT ( #56, #90, ( #58 ) ) ;
#117 = VERTEX_POINT ( 'NONE', #135 ) ;
#118 = PLANE ( 'NONE',  #201 ) ;
#119 = CARTESIAN_POINT ( 'NONE',  ( -1.282745515301426305E-30, 4.499265603851169331E-32, -3.673929174504626980E-16 ) ) ;
#120 = CIRCLE ( 'NONE', #124, 2.499999999999994671 ) ;
#121 = PERSON ( 'UNSPECIFIED', 'UNSPECIFIED', 'UNSPECIFIED', ('UNSPECIFIED'), ('UNSPECIFIED'), ('UNSPECIFIED') ) ;
#122 = DIRECTION ( 'NONE',  ( 4.275831445896959482E-31, 1.000000000000000000, 1.224646799147353454E-16 ) ) ;
#123 = FACE_BOUND ( 'NONE', #91, .T. ) ;
#124 = AXIS2_PLACEMENT_3D ( 'NONE', #101, #1, #106 ) ;
#125 = APPLICATION_PROTOCOL_DEFINITION ( 'international standard', 'config_control_design', 1994, #96 ) ;
#126 = COORDINATED_UNIVERSAL_TIME_OFFSET ( 1, 0, .AHEAD. ) ;
#127 =( NAMED_UNIT ( * ) PLANE_ANGLE_UNIT ( ) SI_UNIT ( $, .RADIAN. ) );
#128 = ORGANIZATION ( 'UNSPECIFIED', 'UNSPECIFIED', '' ) ;
#129 = DATE_AND_TIME ( #76, #133 ) ;
#130 = EDGE_LOOP ( 'NONE', ( #72 ) ) ;
#131 = AXIS2_PLACEMENT_3D ( 'NONE', #163, #162, #48 ) ;
#132 = PRODUCT_RELATED_PRODUCT_CATEGORY ( 'detail', '', ( #58 ) ) ;
#133 = LOCAL_TIME ( 9, 40, 27.00000000000000000, #13 ) ;
#134 = PLANE ( 'NONE',  #55 ) ;
#135 = CARTESIAN_POINT ( 'NONE',  ( 1.728283262727351074E-13, 2.499999999999992895, 49.50000000000000000 ) ) ;
#136 = FACE_OUTER_BOUND ( 'NONE', #168, .T. ) ;
#137 = CARTESIAN_POINT ( 'NONE',  ( 5.586370142149013368E-14, -1.959434878635765131E-15, 16.00000000000000000 ) ) ;
#138 = DIRECTION ( 'NONE',  ( 0.0000000000000000000, 1.000000000000000000, 0.0000000000000000000 ) ) ;
#139 = APPROVAL_DATE_TIME ( #167, #173 ) ;
#140 = PERSON_AND_ORGANIZATION ( #121, #128 ) ;
#141 = AXIS2_PLACEMENT_3D ( 'NONE', #152, #52, #138 ) ;
#142 = APPROVAL_DATE_TIME ( #174, #187 ) ;
#143 = APPLICATION_CONTEXT ( 'configuration controlled 3d designs of mechanical parts and assemblies' ) ;
#144 = ADVANCED_FACE ( 'NONE', ( #160 ), #175, .F. ) ;
#145 = CARTESIAN_POINT ( 'NONE',  ( -2.137876538271896752E-31, 2.499999999999992895, -6.123121766362532060E-17 ) ) ;
#146 = CYLINDRICAL_SURFACE ( 'NONE', #19, 2.499999999999996891 ) ;
#147 = ORIENTED_EDGE ( 'NONE', *, *, #149, .F. ) ;
#148 = CARTESIAN_POINT ( 'NONE',  ( 5.586370142149013368E-14, 1.874699728327315168E-32, 16.00000000000000000 ) ) ;
#149 = EDGE_CURVE ( 'NONE', #199, #199, #83, .T. ) ;
#150 = DIRECTION ( 'NONE',  ( -4.275831445896958607E-31, -1.000000000000000000, -1.224646799147353207E-16 ) ) ;
#151 = SECURITY_CLASSIFICATION ( '', '', #26 ) ;
#152 = CARTESIAN_POINT ( 'NONE',  ( 1.728283262727351074E-13, -6.062001655779398511E-15, 49.50000000000000000 ) ) ;
#153 = APPROVAL_STATUS ( 'not_yet_approved' ) ;
#154 = APPROVAL_ROLE ( '' ) ;
#155 = CIRCLE ( 'NONE', #141, 2.499999999999998668 ) ;
#156 = PERSON_AND_ORGANIZATION ( #121, #128 ) ;
#157 = DATE_AND_TIME ( #12, #14 ) ;
#158 = PERSON_AND_ORGANIZATION_ROLE ( 'classification_officer' ) ;
#159 = LOCAL_TIME ( 9, 40, 27.00000000000000000, #111 ) ;
#160 = FACE_OUTER_BOUND ( 'NONE', #130, .T. ) ;
#161 = DIRECTION ( 'NONE',  ( -3.491481338843133355E-15, 1.224646799147353207E-16, -1.000000000000000000 ) ) ;
#162 = DIRECTION ( 'NONE',  ( -3.491481338843133355E-15, 1.224646799147353207E-16, -1.000000000000000000 ) ) ;
#163 = CARTESIAN_POINT ( 'NONE',  ( 1.745740669421566678E-13, -6.123233995736766085E-15, 50.00000000000000000 ) ) ;
#164 = CARTESIAN_POINT ( 'NONE',  ( 5.586370142149013368E-14, 1.874699728327315168E-32, 16.00000000000000000 ) ) ;
#165 = PERSON_AND_ORGANIZATION ( #121, #128 ) ;
#166 = MECHANICAL_CONTEXT ( 'NONE', #143, 'mechanical' ) ;
#167 = DATE_AND_TIME ( #92, #159 ) ;
#168 = EDGE_LOOP ( 'NONE', ( #17 ) ) ;
#169 = APPROVAL_PERSON_ORGANIZATION ( #24, #105, #94 ) ;
#170 = DATE_TIME_ROLE ( 'creation_date' ) ;
#171 = PERSON_AND_ORGANIZATION_ROLE ( 'design_supplier' ) ;
#172 = COORDINATED_UNIVERSAL_TIME_OFFSET ( 1, 0, .AHEAD. ) ;
#173 = APPROVAL ( #185, 'UNSPECIFIED' ) ;
#174 = DATE_AND_TIME ( #189, #65 ) ;
#175 = PLANE ( 'NONE',  #37 ) ;
#176 = ORIENTED_EDGE ( 'NONE', *, *, #184, .T. ) ;
#177 = CIRCLE ( 'NONE', #131, 1.999999999999998668 ) ;
#178 = CIRCLE ( 'NONE', #93, 2.499999999999992895 ) ;
#179 = FACE_OUTER_BOUND ( 'NONE', #87, .T. ) ;
#180 = CARTESIAN_POINT ( 'NONE',  ( 0.0000000000000000000, 0.0000000000000000000, 0.0000000000000000000 ) ) ;
#181 = CC_DESIGN_PERSON_AND_ORGANIZATION_ASSIGNMENT ( #89, #171, ( #54 ) ) ;
#182 = EDGE_LOOP ( 'NONE', ( #46 ) ) ;
#183 = MANIFOLD_SOLID_BREP ( 'Corps-Déplacer/Copier1[2]', #50 ) ;
#184 = EDGE_CURVE ( 'NONE', #73, #73, #177, .T. ) ;
#185 = APPROVAL_STATUS ( 'not_yet_approved' ) ;
#186 = DIRECTION ( 'NONE',  ( 1.000000000000000000, 0.0000000000000000000, 0.0000000000000000000 ) ) ;
#187 = APPROVAL ( #153, 'UNSPECIFIED' ) ;
#188 = APPROVAL_ROLE ( '' ) ;
#189 = CALENDAR_DATE ( 2021, 8, 12 ) ;
#190 = AXIS2_PLACEMENT_3D ( 'NONE', #71, #49, #70 ) ;
#191 = PRODUCT_DEFINITION ( 'UNKNOWN', '', #54, #43 ) ;
#192 = DIRECTION ( 'NONE',  ( 0.0000000000000000000, 1.000000000000000000, 0.0000000000000000000 ) ) ;
#193 = DIRECTION ( 'NONE',  ( 3.491481338843133355E-15, -1.224646799147353207E-16, 1.000000000000000000 ) ) ;
#194 = DIRECTION ( 'NONE',  ( 3.491481338843133355E-15, -1.224646799147353207E-16, 1.000000000000000000 ) ) ;
#195 = LOCAL_TIME ( 9, 40, 27.00000000000000000, #126 ) ;
#196 = FACE_OUTER_BOUND ( 'NONE', #36, .T. ) ;
#197 = FACE_OUTER_BOUND ( 'NONE', #68, .T. ) ;
#198 = CC_DESIGN_SECURITY_CLASSIFICATION ( #151, ( #54 ) ) ;
#199 = VERTEX_POINT ( 'NONE', #200 ) ;
#200 = CARTESIAN_POINT ( 'NONE',  ( 5.586370142149013368E-14, 2.499999999999992895, 16.00000000000000000 ) ) ;
#201 = AXIS2_PLACEMENT_3D ( 'NONE', #82, #86, #150 ) ;
#202 = ORIENTED_EDGE ( 'NONE', *, *, #28, .F. ) ;
#203 = ADVANCED_FACE ( 'NONE', ( #197 ), #118, .F. ) ;
ENDSEC;
END-ISO-10303-21;
