ISO-10303-21;
HEADER;
FILE_DESCRIPTION (( 'STEP AP203' ),
    '1' );
FILE_NAME ('372605.step',
    '2021-12-08T08:40:27',
    ( '' ),
    ( '' ),
    'SwSTEP 2.0',
    'SolidWorks 2019',
    '' );
FILE_SCHEMA (( 'CONFIG_CONTROL_DESIGN' ));
ENDSEC;

DATA;
#1 = DIRECTION ( 'NONE',  ( 3.491481338843133355E-15, -1.224646799147353207E-16, 1.000000000000000000 ) ) ;
#2 = CARTESIAN_POINT ( 'NONE',  ( 2.080922877950507480E-13, 2.999999999999990674, 59.60000000000000142 ) ) ;
#3 = DIRECTION ( 'NONE',  ( 0.0000000000000000000, 1.000000000000000000, 0.0000000000000000000 ) ) ;
#4 = DIRECTION ( 'NONE',  ( 0.0000000000000000000, -1.000000000000000000, 0.0000000000000000000 ) ) ;
#5 = EDGE_CURVE ( 'NONE', #148, #148, #135, .T. ) ;
#6 = CC_DESIGN_APPROVAL ( #161, ( #113 ) ) ;
#7 = COORDINATED_UNIVERSAL_TIME_OFFSET ( 1, 0, .AHEAD. ) ;
#8 = ORIENTED_EDGE ( 'NONE', *, *, #49, .T. ) ;
#9 = DIRECTION ( 'NONE',  ( 3.491481338843133355E-15, -1.224646799147353207E-16, 1.000000000000000000 ) ) ;
#10 = CARTESIAN_POINT ( 'NONE',  ( 2.094888803305880013E-13, -7.347880794884118356E-15, 60.00000000000000000 ) ) ;
#11 = CIRCLE ( 'NONE', #116, 2.999999999999995559 ) ;
#12 = SECURITY_CLASSIFICATION_LEVEL ( 'unclassified' ) ;
#13 = CARTESIAN_POINT ( 'NONE',  ( 1.384730368669115083E-13, -5.062501783195454053E-15, 39.66025403784433223 ) ) ;
#14 = ORIENTED_EDGE ( 'NONE', *, *, #24, .F. ) ;
#15 = CARTESIAN_POINT ( 'NONE',  ( 7.332110811570580046E-14, -2.680581353454260205E-15, 21.00000000000000000 ) ) ;
#16 = ADVANCED_FACE ( 'NONE', ( #129, #177 ), #46, .T. ) ;
#17 = VERTEX_POINT ( 'NONE', #2 ) ;
#18 = CARTESIAN_POINT ( 'NONE',  ( -2.922372296118807037E-30, 8.339173982571312709E-32, -8.370006918287312040E-16 ) ) ;
#19 = DIRECTION ( 'NONE',  ( -3.491481338843133355E-15, 1.224646799147353207E-16, -1.000000000000000000 ) ) ;
#20 = CARTESIAN_POINT ( 'NONE',  ( 0.0000000000000000000, 0.0000000000000000000, 0.0000000000000000000 ) ) ;
#21 = EDGE_LOOP ( 'NONE', ( #29 ) ) ;
#22 = COORDINATED_UNIVERSAL_TIME_OFFSET ( 1, 0, .AHEAD. ) ;
#23 = DIRECTION ( 'NONE',  ( 3.491481338843133355E-15, -1.276467311168695266E-16, 1.000000000000000000 ) ) ;
#24 = EDGE_CURVE ( 'NONE', #206, #206, #35, .T. ) ;
#25 = DIRECTION ( 'NONE',  ( 3.491481338843133355E-15, -1.276467311168695266E-16, 1.000000000000000000 ) ) ;
#26 = PERSON_AND_ORGANIZATION ( #94, #223 ) ;
#27 = DIRECTION ( 'NONE',  ( 3.491481338843133355E-15, -1.276467311168695266E-16, 1.000000000000000000 ) ) ;
#28 = EDGE_LOOP ( 'NONE', ( #142 ) ) ;
#29 = ORIENTED_EDGE ( 'NONE', *, *, #154, .T. ) ;
#30 = CONICAL_SURFACE ( 'NONE', #203, 2.599999999999997868, 0.7853981633974516097 ) ;
#31 =( NAMED_UNIT ( * ) PLANE_ANGLE_UNIT ( ) SI_UNIT ( $, .RADIAN. ) );
#32 = MECHANICAL_CONTEXT ( 'NONE', #151, 'mechanical' ) ;
#33 = ADVANCED_FACE ( 'NONE', ( #72, #214 ), #195, .T. ) ;
#34 = CIRCLE ( 'NONE', #174, 1.999999999999999112 ) ;
#35 = CIRCLE ( 'NONE', #78, 2.599999999999997868 ) ;
#36 = CARTESIAN_POINT ( 'NONE',  ( 7.332110811570580046E-14, -2.000000000000000888, 21.00000000000000000 ) ) ;
#37 = DIRECTION ( 'NONE',  ( -3.491481338843133355E-15, 1.224646799147353207E-16, -1.000000000000000000 ) ) ;
#38 = CARTESIAN_POINT ( 'NONE',  ( 7.332110811570580046E-14, 2.249639673992777654E-32, 21.00000000000000000 ) ) ;
#39 = APPROVAL_PERSON_ORGANIZATION ( #131, #165, #193 ) ;
#40 = ORIENTED_EDGE ( 'NONE', *, *, #5, .F. ) ;
#41 = APPROVAL_DATE_TIME ( #210, #204 ) ;
#42 = AXIS2_PLACEMENT_3D ( 'NONE', #197, #9, #87 ) ;
#43 = DATE_AND_TIME ( #63, #150 ) ;
#44 = CARTESIAN_POINT ( 'NONE',  ( -6.413839710158237013E-31, 0.0000000000000000000, -1.836996703606440502E-16 ) ) ;
#45 = EDGE_LOOP ( 'NONE', ( #158 ) ) ;
#46 = CONICAL_SURFACE ( 'NONE', #181, 6.999999999999999112, 0.2617993877991502405 ) ;
#47 = FACE_OUTER_BOUND ( 'NONE', #124, .T. ) ;
#48 = LOCAL_TIME ( 9, 40, 27.00000000000000000, #212 ) ;
#49 = EDGE_CURVE ( 'NONE', #61, #61, #93, .T. ) ;
#50 = DIRECTION ( 'NONE',  ( 0.0000000000000000000, 0.0000000000000000000, 1.000000000000000000 ) ) ;
#51 = AXIS2_PLACEMENT_3D ( 'NONE', #105, #23, #163 ) ;
#52 = CALENDAR_DATE ( 2021, 8, 12 ) ;
#53 = APPROVAL_ROLE ( '' ) ;
#54 = EDGE_LOOP ( 'NONE', ( #8 ) ) ;
#55 = PLANE ( 'NONE',  #42 ) ;
#56 = ADVANCED_FACE ( 'NONE', ( #218, #95 ), #30, .T. ) ;
#57 = PRODUCT_DEFINITION_SHAPE ( 'NONE', 'NONE',  #113 ) ;
#58 = PERSON_AND_ORGANIZATION ( #94, #223 ) ;
#59 = CARTESIAN_POINT ( 'NONE',  ( 2.094888803305880013E-13, -7.347880794884118356E-15, 60.00000000000000000 ) ) ;
#60 = LOCAL_TIME ( 9, 40, 27.00000000000000000, #7 ) ;
#61 = VERTEX_POINT ( 'NONE', #36 ) ;
#62 = DIRECTION ( 'NONE',  ( -4.275831445896958607E-31, -1.000000000000000000, -1.224646799147353207E-16 ) ) ;
#63 = CALENDAR_DATE ( 2021, 8, 12 ) ;
#64 = CC_DESIGN_APPROVAL ( #204, ( #76 ) ) ;
#65 = EDGE_CURVE ( 'NONE', #17, #17, #66, .T. ) ;
#66 = CIRCLE ( 'NONE', #157, 2.999999999999997780 ) ;
#67 = APPROVAL_STATUS ( 'not_yet_approved' ) ;
#68 = DIRECTION ( 'NONE',  ( -4.456761796588772289E-31, -1.000000000000000000, -1.276467311168695266E-16 ) ) ;
#69 = PERSON_AND_ORGANIZATION ( #94, #223 ) ;
#70 = DIRECTION ( 'NONE',  ( -3.491481338843133355E-15, 1.224646799147353207E-16, -1.000000000000000000 ) ) ;
#71 = DATE_AND_TIME ( #125, #48 ) ;
#72 = FACE_OUTER_BOUND ( 'NONE', #21, .T. ) ;
#73 = DIRECTION ( 'NONE',  ( 4.275831445896959482E-31, 1.000000000000000000, 1.224646799147353207E-16 ) ) ;
#74 = ORIENTED_EDGE ( 'NONE', *, *, #49, .F. ) ;
#75 = CC_DESIGN_PERSON_AND_ORGANIZATION_ASSIGNMENT ( #188, #110, ( #76 ) ) ;
#76 = PRODUCT_DEFINITION_FORMATION_WITH_SPECIFIED_SOURCE ( 'ANY', '', #118, .NOT_KNOWN. ) ;
#77 = UNCERTAINTY_MEASURE_WITH_UNIT (LENGTH_MEASURE( 1.000000000000000082E-05 ), #167, 'distance_accuracy_value', 'NONE');
#78 = AXIS2_PLACEMENT_3D ( 'NONE', #10, #70, #146 ) ;
#79 = CARTESIAN_POINT ( 'NONE',  ( 2.094888803305880013E-13, 2.599999999999990319, 60.00000000000000000 ) ) ;
#80 = DIRECTION ( 'NONE',  ( 0.0000000000000000000, -1.000000000000000000, 0.0000000000000000000 ) ) ;
#81 = VERTEX_POINT ( 'NONE', #97 ) ;
#82 = FACE_OUTER_BOUND ( 'NONE', #28, .T. ) ;
#83 = APPLICATION_PROTOCOL_DEFINITION ( 'international standard', 'config_control_design', 1994, #151 ) ;
#84 = ADVANCED_FACE ( 'NONE', ( #82 ), #173, .F. ) ;
#85 = PERSON_AND_ORGANIZATION_ROLE ( 'creator' ) ;
#86 = CLOSED_SHELL ( 'NONE', ( #199, #33, #84 ) ) ;
#87 = DIRECTION ( 'NONE',  ( -4.275831445896958607E-31, -1.000000000000000000, -1.224646799147353207E-16 ) ) ;
#88 = PERSON_AND_ORGANIZATION_ROLE ( 'classification_officer' ) ;
#89 = DIRECTION ( 'NONE',  ( 0.0000000000000000000, -1.000000000000000000, 0.0000000000000000000 ) ) ;
#90 = CARTESIAN_POINT ( 'NONE',  ( 2.094888803305880013E-13, 1.949687717460402027E-32, 60.00000000000000000 ) ) ;
#91 = ORIENTED_EDGE ( 'NONE', *, *, #5, .T. ) ;
#92 = EDGE_LOOP ( 'NONE', ( #211 ) ) ;
#93 = CIRCLE ( 'NONE', #184, 1.999999999999998224 ) ;
#94 = PERSON ( 'UNSPECIFIED', 'UNSPECIFIED', 'UNSPECIFIED', ('UNSPECIFIED'), ('UNSPECIFIED'), ('UNSPECIFIED') ) ;
#95 = FACE_BOUND ( 'NONE', #132, .T. ) ;
#96 = CARTESIAN_POINT ( 'NONE',  ( 0.0000000000000000000, 0.0000000000000000000, 0.0000000000000000000 ) ) ;
#97 = CARTESIAN_POINT ( 'NONE',  ( 8.635149386594691174E-14, -2.999999999999998668, 24.73205080756885721 ) ) ;
#98 = CC_DESIGN_PERSON_AND_ORGANIZATION_ASSIGNMENT ( #69, #85, ( #113 ) ) ;
#99 = APPROVAL_PERSON_ORGANIZATION ( #26, #161, #175 ) ;
#100 = SHAPE_DEFINITION_REPRESENTATION ( #57, #183 ) ;
#101 = VERTEX_POINT ( 'NONE', #217 ) ;
#102 = CYLINDRICAL_SURFACE ( 'NONE', #170, 2.999999999999995559 ) ;
#103 = ORIENTED_EDGE ( 'NONE', *, *, #114, .T. ) ;
#104 = APPROVAL_STATUS ( 'not_yet_approved' ) ;
#105 = CARTESIAN_POINT ( 'NONE',  ( 7.332110811570580046E-14, -2.680581353454260205E-15, 21.00000000000000000 ) ) ;
#106 = PLANE ( 'NONE',  #138 ) ;
#107 = CARTESIAN_POINT ( 'NONE',  ( -4.275918700724315442E-31, 1.499790387535451925E-32, -1.224671789923155247E-16 ) ) ;
#108 = PLANE ( 'NONE',  #140 ) ;
#109 = EDGE_LOOP ( 'NONE', ( #189 ) ) ;
#110 = PERSON_AND_ORGANIZATION_ROLE ( 'creator' ) ;
#111 = DIRECTION ( 'NONE',  ( 3.491481338843133355E-15, -1.276467311168695266E-16, 1.000000000000000000 ) ) ;
#112 = FACE_OUTER_BOUND ( 'NONE', #191, .T. ) ;
#113 = PRODUCT_DEFINITION ( 'UNKNOWN', '', #76, #121 ) ;
#114 = EDGE_CURVE ( 'NONE', #81, #81, #11, .T. ) ;
#115 = EDGE_LOOP ( 'NONE', ( #14 ) ) ;
#116 = AXIS2_PLACEMENT_3D ( 'NONE', #209, #186, #4 ) ;
#117 = FACE_OUTER_BOUND ( 'NONE', #92, .T. ) ;
#118 = PRODUCT ( '372605', '372605', '', ( #32 ) ) ;
#119 = LOCAL_TIME ( 9, 40, 27.00000000000000000, #22 ) ;
#120 = CC_DESIGN_DATE_AND_TIME_ASSIGNMENT ( #71, #147, ( #113 ) ) ;
#121 = DESIGN_CONTEXT ( 'detailed design', #222, 'design' ) ;
#122 = MANIFOLD_SOLID_BREP ( 'Corps-Déplacer/Copier1[1]', #171 ) ;
#123 = CARTESIAN_POINT ( 'NONE',  ( 7.332110811570580046E-14, -2.000000000000000888, 21.00000000000000000 ) ) ;
#124 = EDGE_LOOP ( 'NONE', ( #91 ) ) ;
#125 = CALENDAR_DATE ( 2021, 8, 12 ) ;
#126 = ORIENTED_EDGE ( 'NONE', *, *, #24, .T. ) ;
#127 =( NAMED_UNIT ( * ) SI_UNIT ( $, .STERADIAN. ) SOLID_ANGLE_UNIT ( ) );
#128 = CALENDAR_DATE ( 2021, 8, 12 ) ;
#129 = FACE_BOUND ( 'NONE', #54, .T. ) ;
#130 = CC_DESIGN_SECURITY_CLASSIFICATION ( #198, ( #76 ) ) ;
#131 = PERSON_AND_ORGANIZATION ( #94, #223 ) ;
#132 = EDGE_LOOP ( 'NONE', ( #126 ) ) ;
#133 = COORDINATED_UNIVERSAL_TIME_OFFSET ( 1, 0, .AHEAD. ) ;
#134 = DIRECTION ( 'NONE',  ( 0.0000000000000000000, 1.000000000000000000, 0.0000000000000000000 ) ) ;
#135 = CIRCLE ( 'NONE', #51, 1.999999999999998224 ) ;
#136 = FACE_OUTER_BOUND ( 'NONE', #45, .T. ) ;
#137 = PERSON_AND_ORGANIZATION_ROLE ( 'design_owner' ) ;
#138 = AXIS2_PLACEMENT_3D ( 'NONE', #90, #220, #200 ) ;
#139 = DATE_AND_TIME ( #196, #192 ) ;
#140 = AXIS2_PLACEMENT_3D ( 'NONE', #38, #1, #62 ) ;
#141 = PERSON_AND_ORGANIZATION ( #94, #223 ) ;
#142 = ORIENTED_EDGE ( 'NONE', *, *, #154, .F. ) ;
#143 = APPROVAL_DATE_TIME ( #43, #161 ) ;
#144 = EDGE_LOOP ( 'NONE', ( #103 ) ) ;
#145 = DATE_AND_TIME ( #52, #119 ) ;
#146 = DIRECTION ( 'NONE',  ( 0.0000000000000000000, 1.000000000000000000, 0.0000000000000000000 ) ) ;
#147 = DATE_TIME_ROLE ( 'creation_date' ) ;
#148 = VERTEX_POINT ( 'NONE', #123 ) ;
#149 = DIRECTION ( 'NONE',  ( 3.491481338843133355E-15, -1.276467311168695266E-16, 1.000000000000000000 ) ) ;
#150 = LOCAL_TIME ( 9, 40, 27.00000000000000000, #133 ) ;
#151 = APPLICATION_CONTEXT ( 'configuration controlled 3d designs of mechanical parts and assemblies' ) ;
#152 = APPROVAL_PERSON_ORGANIZATION ( #141, #204, #53 ) ;
#153 = FACE_OUTER_BOUND ( 'NONE', #115, .T. ) ;
#154 = EDGE_CURVE ( 'NONE', #101, #101, #34, .T. ) ;
#155 = COORDINATED_UNIVERSAL_TIME_OFFSET ( 1, 0, .AHEAD. ) ;
#156 = DIRECTION ( 'NONE',  ( 3.491481338843133355E-15, -1.224646799147353207E-16, 1.000000000000000000 ) ) ;
#157 = AXIS2_PLACEMENT_3D ( 'NONE', #172, #19, #3 ) ;
#158 = ORIENTED_EDGE ( 'NONE', *, *, #65, .T. ) ;
#159 = DIRECTION ( 'NONE',  ( 1.000000000000000000, 0.0000000000000000000, 0.0000000000000000000 ) ) ;
#160 = APPROVAL_DATE_TIME ( #145, #165 ) ;
#161 = APPROVAL ( #104, 'UNSPECIFIED' ) ;
#162 = DATE_TIME_ROLE ( 'classification_date' ) ;
#163 = DIRECTION ( 'NONE',  ( 0.0000000000000000000, -1.000000000000000000, 0.0000000000000000000 ) ) ;
#164 = PERSON_AND_ORGANIZATION ( #94, #223 ) ;
#165 = APPROVAL ( #208, 'UNSPECIFIED' ) ;
#166 = DIRECTION ( 'NONE',  ( -3.491481338843133355E-15, 1.224646799147353207E-16, -1.000000000000000000 ) ) ;
#167 =( LENGTH_UNIT ( ) NAMED_UNIT ( * ) SI_UNIT ( .MILLI., .METRE. ) );
#168 = AXIS2_PLACEMENT_3D ( 'NONE', #96, #50, #159 ) ;
#169 = ADVANCED_FACE ( 'NONE', ( #136, #117 ), #102, .T. ) ;
#170 = AXIS2_PLACEMENT_3D ( 'NONE', #20, #166, #73 ) ;
#171 = CLOSED_SHELL ( 'NONE', ( #169, #56, #202, #16, #216 ) ) ;
#172 = CARTESIAN_POINT ( 'NONE',  ( 2.080922877950507480E-13, -7.298894922918224927E-15, 59.60000000000000142 ) ) ;
#173 = PLANE ( 'NONE',  #201 ) ;
#174 = AXIS2_PLACEMENT_3D ( 'NONE', #18, #25, #68 ) ;
#175 = APPROVAL_ROLE ( '' ) ;
#176 = DIRECTION ( 'NONE',  ( -4.275831445896958607E-31, -1.000000000000000000, -1.224646799147353207E-16 ) ) ;
#177 = FACE_OUTER_BOUND ( 'NONE', #144, .T. ) ;
#178 = CC_DESIGN_DATE_AND_TIME_ASSIGNMENT ( #139, #162, ( #198 ) ) ;
#179 = PERSON_AND_ORGANIZATION_ROLE ( 'design_supplier' ) ;
#180 = DIRECTION ( 'NONE',  ( -4.456761796588769661E-31, -1.000000000000000000, -1.276467311168695019E-16 ) ) ;
#181 = AXIS2_PLACEMENT_3D ( 'NONE', #13, #27, #89 ) ;
#182 = APPLICATION_PROTOCOL_DEFINITION ( 'international standard', 'config_control_design', 1994, #222 ) ;
#183 = ADVANCED_BREP_SHAPE_REPRESENTATION ( '372605', ( #122, #194, #168 ), #207 ) ;
#184 = AXIS2_PLACEMENT_3D ( 'NONE', #15, #149, #80 ) ;
#185 = CC_DESIGN_PERSON_AND_ORGANIZATION_ASSIGNMENT ( #190, #88, ( #198 ) ) ;
#186 = DIRECTION ( 'NONE',  ( -3.491481338843133355E-15, 1.276467311168695266E-16, -1.000000000000000000 ) ) ;
#187 = CC_DESIGN_APPROVAL ( #165, ( #198 ) ) ;
#188 = PERSON_AND_ORGANIZATION ( #94, #223 ) ;
#189 = ORIENTED_EDGE ( 'NONE', *, *, #65, .F. ) ;
#190 = PERSON_AND_ORGANIZATION ( #94, #223 ) ;
#191 = EDGE_LOOP ( 'NONE', ( #74 ) ) ;
#192 = LOCAL_TIME ( 9, 40, 27.00000000000000000, #155 ) ;
#193 = APPROVAL_ROLE ( '' ) ;
#194 = MANIFOLD_SOLID_BREP ( 'Corps-Déplacer/Copier1[2]', #86 ) ;
#195 = CYLINDRICAL_SURFACE ( 'NONE', #219, 1.999999999999998668 ) ;
#196 = CALENDAR_DATE ( 2021, 8, 12 ) ;
#197 = CARTESIAN_POINT ( 'NONE',  ( 7.332110811570580046E-14, 2.249639673992777654E-32, 21.00000000000000000 ) ) ;
#198 = SECURITY_CLASSIFICATION ( '', '', #12 ) ;
#199 = ADVANCED_FACE ( 'NONE', ( #47 ), #108, .T. ) ;
#200 = DIRECTION ( 'NONE',  ( 4.275831445896958607E-31, 1.000000000000000000, 1.224646799147353207E-16 ) ) ;
#201 = AXIS2_PLACEMENT_3D ( 'NONE', #107, #156, #176 ) ;
#202 = ADVANCED_FACE ( 'NONE', ( #153 ), #106, .F. ) ;
#203 = AXIS2_PLACEMENT_3D ( 'NONE', #59, #37, #134 ) ;
#204 = APPROVAL ( #67, 'UNSPECIFIED' ) ;
#205 = CC_DESIGN_PERSON_AND_ORGANIZATION_ASSIGNMENT ( #58, #137, ( #118 ) ) ;
#206 = VERTEX_POINT ( 'NONE', #79 ) ;
#207 =( GEOMETRIC_REPRESENTATION_CONTEXT ( 3 ) GLOBAL_UNCERTAINTY_ASSIGNED_CONTEXT ( ( #77 ) ) GLOBAL_UNIT_ASSIGNED_CONTEXT ( ( #167, #31, #127 ) ) REPRESENTATION_CONTEXT ( 'NONE', 'WORKASPACE' ) );
#208 = APPROVAL_STATUS ( 'not_yet_approved' ) ;
#209 = CARTESIAN_POINT ( 'NONE',  ( 8.635149386594691174E-14, -3.156965439402497555E-15, 24.73205080756885721 ) ) ;
#210 = DATE_AND_TIME ( #128, #60 ) ;
#211 = ORIENTED_EDGE ( 'NONE', *, *, #114, .F. ) ;
#212 = COORDINATED_UNIVERSAL_TIME_OFFSET ( 1, 0, .AHEAD. ) ;
#213 = EDGE_LOOP ( 'NONE', ( #40 ) ) ;
#214 = FACE_OUTER_BOUND ( 'NONE', #213, .T. ) ;
#215 = PRODUCT_RELATED_PRODUCT_CATEGORY ( 'detail', '', ( #118 ) ) ;
#216 = ADVANCED_FACE ( 'NONE', ( #112 ), #55, .F. ) ;
#217 = CARTESIAN_POINT ( 'NONE',  ( -3.813724655436561320E-30, -1.999999999999999112, -1.092294154062470257E-15 ) ) ;
#218 = FACE_OUTER_BOUND ( 'NONE', #109, .T. ) ;
#219 = AXIS2_PLACEMENT_3D ( 'NONE', #44, #111, #180 ) ;
#220 = DIRECTION ( 'NONE',  ( -3.491481338843133355E-15, 1.224646799147353207E-16, -1.000000000000000000 ) ) ;
#221 = CC_DESIGN_PERSON_AND_ORGANIZATION_ASSIGNMENT ( #164, #179, ( #76 ) ) ;
#222 = APPLICATION_CONTEXT ( 'configuration controlled 3d designs of mechanical parts and assemblies' ) ;
#223 = ORGANIZATION ( 'UNSPECIFIED', 'UNSPECIFIED', '' ) ;
ENDSEC;
END-ISO-10303-21;
