ISO-10303-21;
HEADER;
FILE_DESCRIPTION (( 'STEP AP203' ),
    '1' );
FILE_NAME ('372604.step',
    '2021-12-08T08:40:26',
    ( '' ),
    ( '' ),
    'SwSTEP 2.0',
    'SolidWorks 2019',
    '' );
FILE_SCHEMA (( 'CONFIG_CONTROL_DESIGN' ));
ENDSEC;

DATA;
#1 = CARTESIAN_POINT ( 'NONE',  ( 0.0000000000000000000, 0.0000000000000000000, 0.0000000000000000000 ) ) ;
#2 = APPROVAL_DATE_TIME ( #205, #20 ) ;
#3 = LOCAL_TIME ( 9, 40, 26.00000000000000000, #113 ) ;
#4 = DIRECTION ( 'NONE',  ( 0.0000000000000000000, 0.0000000000000000000, 1.000000000000000000 ) ) ;
#5 = CARTESIAN_POINT ( 'NONE',  ( -6.413839710158237013E-31, 0.0000000000000000000, -1.836996703606440502E-16 ) ) ;
#6 = CARTESIAN_POINT ( 'NONE',  ( -4.275853214981523454E-31, 1.499767418228869069E-32, -1.224653034060976204E-16 ) ) ;
#7 = CIRCLE ( 'NONE', #56, 1.999999999999996669 ) ;
#8 = CARTESIAN_POINT ( 'NONE',  ( 4.189777606611760026E-14, 2.249639673992779296E-32, 12.00000000000000000 ) ) ;
#9 = APPROVAL_STATUS ( 'not_yet_approved' ) ;
#10 = APPROVAL ( #9, 'UNSPECIFIED' ) ;
#11 = ORIENTED_EDGE ( 'NONE', *, *, #31, .F. ) ;
#12 = CARTESIAN_POINT ( 'NONE',  ( 4.189777606611760026E-14, -1.531760773402434319E-15, 12.00000000000000000 ) ) ;
#13 = AXIS2_PLACEMENT_3D ( 'NONE', #96, #145, #118 ) ;
#14 = CARTESIAN_POINT ( 'NONE',  ( 5.492816181635874941E-14, -2.999999999999999556, 15.73205080756886609 ) ) ;
#15 = DESIGN_CONTEXT ( 'detailed design', #54, 'design' ) ;
#16 = CIRCLE ( 'NONE', #105, 2.999999999999997335 ) ;
#17 = EDGE_LOOP ( 'NONE', ( #139 ) ) ;
#18 = PERSON_AND_ORGANIZATION ( #95, #143 ) ;
#19 = CALENDAR_DATE ( 2021, 8, 12 ) ;
#20 = APPROVAL ( #53, 'UNSPECIFIED' ) ;
#21 = APPLICATION_PROTOCOL_DEFINITION ( 'international standard', 'config_control_design', 1994, #54 ) ;
#22 = SECURITY_CLASSIFICATION_LEVEL ( 'unclassified' ) ;
#23 = ORIENTED_EDGE ( 'NONE', *, *, #31, .T. ) ;
#24 = MECHANICAL_CONTEXT ( 'NONE', #86, 'mechanical' ) ;
#25 = ORIENTED_EDGE ( 'NONE', *, *, #130, .T. ) ;
#26 = CARTESIAN_POINT ( 'NONE',  ( 5.492816181635874941E-14, -2.008144859350673443E-15, 15.73205080756886609 ) ) ;
#27 = FACE_OUTER_BOUND ( 'NONE', #194, .T. ) ;
#28 = MANIFOLD_SOLID_BREP ( 'Corps-Déplacer/Copier1[2]', #34 ) ;
#29 = DIRECTION ( 'NONE',  ( 3.491481338843133355E-15, -1.276467311168695266E-16, 1.000000000000000000 ) ) ;
#30 = CARTESIAN_POINT ( 'NONE',  ( 4.189777606611760026E-14, -1.531760773402434319E-15, 12.00000000000000000 ) ) ;
#31 = EDGE_CURVE ( 'NONE', #121, #121, #16, .T. ) ;
#32 = CARTESIAN_POINT ( 'NONE',  ( 4.189777606611760026E-14, -1.999999999999998224, 12.00000000000000000 ) ) ;
#33 = CC_DESIGN_PERSON_AND_ORGANIZATION_ASSIGNMENT ( #57, #59, ( #71 ) ) ;
#34 = CLOSED_SHELL ( 'NONE', ( #167, #75, #152 ) ) ;
#35 = MANIFOLD_SOLID_BREP ( 'Corps-Déplacer/Copier1[1]', #132 ) ;
#36 = DATE_TIME_ROLE ( 'classification_date' ) ;
#37 = AXIS2_PLACEMENT_3D ( 'NONE', #146, #63, #47 ) ;
#38 = DATE_AND_TIME ( #19, #159 ) ;
#39 = CALENDAR_DATE ( 2021, 8, 12 ) ;
#40 = ORIENTED_EDGE ( 'NONE', *, *, #130, .F. ) ;
#41 = PRODUCT_RELATED_PRODUCT_CATEGORY ( 'detail', '', ( #61 ) ) ;
#42 = DATE_AND_TIME ( #192, #149 ) ;
#43 = ORIENTED_EDGE ( 'NONE', *, *, #72, .T. ) ;
#44 = DIRECTION ( 'NONE',  ( 0.0000000000000000000, -1.000000000000000000, 0.0000000000000000000 ) ) ;
#45 = AXIS2_PLACEMENT_3D ( 'NONE', #168, #85, #150 ) ;
#46 = EDGE_LOOP ( 'NONE', ( #11 ) ) ;
#47 = DIRECTION ( 'NONE',  ( 0.0000000000000000000, 1.000000000000000000, 0.0000000000000000000 ) ) ;
#48 = DIRECTION ( 'NONE',  ( 3.491481338843133355E-15, -1.276467311168695266E-16, 1.000000000000000000 ) ) ;
#49 = DIRECTION ( 'NONE',  ( 3.491481338843133355E-15, -1.224646799147353207E-16, 1.000000000000000000 ) ) ;
#50 = DIRECTION ( 'NONE',  ( 4.275831445896958607E-31, 1.000000000000000000, 1.224646799147353207E-16 ) ) ;
#51 = CC_DESIGN_APPROVAL ( #20, ( #71 ) ) ;
#52 = ADVANCED_FACE ( 'NONE', ( #162, #114 ), #199, .T. ) ;
#53 = APPROVAL_STATUS ( 'not_yet_approved' ) ;
#54 = APPLICATION_CONTEXT ( 'configuration controlled 3d designs of mechanical parts and assemblies' ) ;
#55 = DATE_TIME_ROLE ( 'creation_date' ) ;
#56 = AXIS2_PLACEMENT_3D ( 'NONE', #12, #79, #180 ) ;
#57 = PERSON_AND_ORGANIZATION ( #95, #143 ) ;
#58 = ORIENTED_EDGE ( 'NONE', *, *, #170, .T. ) ;
#59 = PERSON_AND_ORGANIZATION_ROLE ( 'creator' ) ;
#60 = ORIENTED_EDGE ( 'NONE', *, *, #104, .F. ) ;
#61 = PRODUCT ( '372604', '372604', '', ( #24 ) ) ;
#62 = FACE_BOUND ( 'NONE', #208, .T. ) ;
#63 = DIRECTION ( 'NONE',  ( -3.491481338843133355E-15, 1.224646799147353207E-16, -1.000000000000000000 ) ) ;
#64 = CC_DESIGN_PERSON_AND_ORGANIZATION_ASSIGNMENT ( #78, #140, ( #127 ) ) ;
#65 = CYLINDRICAL_SURFACE ( 'NONE', #178, 1.999999999999997780 ) ;
#66 = CARTESIAN_POINT ( 'NONE',  ( 0.0000000000000000000, 0.0000000000000000000, 0.0000000000000000000 ) ) ;
#67 = ORIENTED_EDGE ( 'NONE', *, *, #110, .T. ) ;
#68 = APPROVAL_ROLE ( '' ) ;
#69 = CONICAL_SURFACE ( 'NONE', #92, 6.999999999999998224, 0.2617993877991502405 ) ;
#70 = ADVANCED_FACE ( 'NONE', ( #161 ), #213, .F. ) ;
#71 = PRODUCT_DEFINITION ( 'UNKNOWN', '', #136, #15 ) ;
#72 = EDGE_CURVE ( 'NONE', #185, #185, #195, .T. ) ;
#73 = PERSON_AND_ORGANIZATION_ROLE ( 'design_owner' ) ;
#74 = ADVANCED_BREP_SHAPE_REPRESENTATION ( '372604', ( #35, #28, #215 ), #169 ) ;
#75 = ADVANCED_FACE ( 'NONE', ( #84, #166 ), #65, .T. ) ;
#76 = CIRCLE ( 'NONE', #37, 3.000000000000002220 ) ;
#77 = APPROVAL_ROLE ( '' ) ;
#78 = PERSON_AND_ORGANIZATION ( #95, #143 ) ;
#79 = DIRECTION ( 'NONE',  ( 3.491481338843133355E-15, -1.276467311168695266E-16, 1.000000000000000000 ) ) ;
#80 = DIRECTION ( 'NONE',  ( -4.275831445896958607E-31, -1.000000000000000000, -1.224646799147353207E-16 ) ) ;
#81 = CIRCLE ( 'NONE', #187, 1.999999999999999112 ) ;
#82 = EDGE_LOOP ( 'NONE', ( #40 ) ) ;
#83 = DIRECTION ( 'NONE',  ( -4.275831445896958607E-31, -1.000000000000000000, -1.224646799147353207E-16 ) ) ;
#84 = FACE_OUTER_BOUND ( 'NONE', #176, .T. ) ;
#85 = DIRECTION ( 'NONE',  ( -3.491481338843133355E-15, 1.224646799147353207E-16, -1.000000000000000000 ) ) ;
#86 = APPLICATION_CONTEXT ( 'configuration controlled 3d designs of mechanical parts and assemblies' ) ;
#87 = DATE_AND_TIME ( #171, #89 ) ;
#88 = CC_DESIGN_DATE_AND_TIME_ASSIGNMENT ( #142, #36, ( #127 ) ) ;
#89 = LOCAL_TIME ( 9, 40, 26.00000000000000000, #100 ) ;
#90 = APPLICATION_PROTOCOL_DEFINITION ( 'international standard', 'config_control_design', 1994, #86 ) ;
#91 = PERSON_AND_ORGANIZATION_ROLE ( 'design_supplier' ) ;
#92 = AXIS2_PLACEMENT_3D ( 'NONE', #216, #29, #99 ) ;
#93 = CONICAL_SURFACE ( 'NONE', #138, 2.600000000000002309, 0.7853981633974510546 ) ;
#94 = APPROVAL_STATUS ( 'not_yet_approved' ) ;
#95 = PERSON ( 'UNSPECIFIED', 'UNSPECIFIED', 'UNSPECIFIED', ('UNSPECIFIED'), ('UNSPECIFIED'), ('UNSPECIFIED') ) ;
#96 = CARTESIAN_POINT ( 'NONE',  ( 4.189777606611760026E-14, 2.249639673992779296E-32, 12.00000000000000000 ) ) ;
#97 = DIRECTION ( 'NONE',  ( 0.0000000000000000000, 1.000000000000000000, 0.0000000000000000000 ) ) ;
#98 = PLANE ( 'NONE',  #156 ) ;
#99 = DIRECTION ( 'NONE',  ( 0.0000000000000000000, -1.000000000000000000, 0.0000000000000000000 ) ) ;
#100 = COORDINATED_UNIVERSAL_TIME_OFFSET ( 1, 0, .AHEAD. ) ;
#101 = EDGE_LOOP ( 'NONE', ( #60 ) ) ;
#102 = PLANE ( 'NONE',  #151 ) ;
#103 = UNCERTAINTY_MEASURE_WITH_UNIT (LENGTH_MEASURE( 1.000000000000000082E-05 ), #158, 'distance_accuracy_value', 'NONE');
#104 = EDGE_CURVE ( 'NONE', #155, #155, #76, .T. ) ;
#105 = AXIS2_PLACEMENT_3D ( 'NONE', #26, #201, #44 ) ;
#106 = EDGE_LOOP ( 'NONE', ( #67 ) ) ;
#107 = VERTEX_POINT ( 'NONE', #188 ) ;
#108 = PERSON_AND_ORGANIZATION ( #95, #143 ) ;
#109 = PERSON_AND_ORGANIZATION ( #95, #143 ) ;
#110 = EDGE_CURVE ( 'NONE', #129, #129, #7, .T. ) ;
#111 = CC_DESIGN_PERSON_AND_ORGANIZATION_ASSIGNMENT ( #18, #173, ( #136 ) ) ;
#112 = EDGE_LOOP ( 'NONE', ( #165 ) ) ;
#113 = COORDINATED_UNIVERSAL_TIME_OFFSET ( 1, 0, .AHEAD. ) ;
#114 = FACE_OUTER_BOUND ( 'NONE', #46, .T. ) ;
#115 = DIRECTION ( 'NONE',  ( 3.491481338843133355E-15, -1.276467311168695266E-16, 1.000000000000000000 ) ) ;
#116 = ORIENTED_EDGE ( 'NONE', *, *, #170, .F. ) ;
#117 = PRODUCT_DEFINITION_SHAPE ( 'NONE', 'NONE',  #71 ) ;
#118 = DIRECTION ( 'NONE',  ( -4.275831445896958607E-31, -1.000000000000000000, -1.224646799147353207E-16 ) ) ;
#119 = CC_DESIGN_SECURITY_CLASSIFICATION ( #127, ( #136 ) ) ;
#120 = CARTESIAN_POINT ( 'NONE',  ( -2.922372296118807037E-30, 8.339173982571312709E-32, -8.370006918287312040E-16 ) ) ;
#121 = VERTEX_POINT ( 'NONE', #14 ) ;
#122 = AXIS2_PLACEMENT_3D ( 'NONE', #6, #134, #80 ) ;
#123 = CC_DESIGN_PERSON_AND_ORGANIZATION_ASSIGNMENT ( #175, #91, ( #136 ) ) ;
#124 = CALENDAR_DATE ( 2021, 8, 12 ) ;
#125 =( NAMED_UNIT ( * ) SI_UNIT ( $, .STERADIAN. ) SOLID_ANGLE_UNIT ( ) );
#126 = DIRECTION ( 'NONE',  ( 1.000000000000000000, 0.0000000000000000000, 0.0000000000000000000 ) ) ;
#127 = SECURITY_CLASSIFICATION ( '', '', #22 ) ;
#128 = COORDINATED_UNIVERSAL_TIME_OFFSET ( 1, 0, .AHEAD. ) ;
#129 = VERTEX_POINT ( 'NONE', #191 ) ;
#130 = EDGE_CURVE ( 'NONE', #206, #206, #81, .T. ) ;
#131 = APPROVAL_DATE_TIME ( #87, #10 ) ;
#132 = CLOSED_SHELL ( 'NONE', ( #52, #147, #203, #157, #70 ) ) ;
#133 = FACE_BOUND ( 'NONE', #106, .T. ) ;
#134 = DIRECTION ( 'NONE',  ( 3.491481338843133355E-15, -1.224646799147353207E-16, 1.000000000000000000 ) ) ;
#135 = DIRECTION ( 'NONE',  ( -3.491481338843133355E-15, 1.224646799147353207E-16, -1.000000000000000000 ) ) ;
#136 = PRODUCT_DEFINITION_FORMATION_WITH_SPECIFIED_SOURCE ( 'ANY', '', #61, .NOT_KNOWN. ) ;
#137 = DIRECTION ( 'NONE',  ( -3.491481338843133355E-15, 1.224646799147353207E-16, -1.000000000000000000 ) ) ;
#138 = AXIS2_PLACEMENT_3D ( 'NONE', #184, #197, #97 ) ;
#139 = ORIENTED_EDGE ( 'NONE', *, *, #110, .F. ) ;
#140 = PERSON_AND_ORGANIZATION_ROLE ( 'classification_officer' ) ;
#141 = FACE_OUTER_BOUND ( 'NONE', #101, .T. ) ;
#142 = DATE_AND_TIME ( #124, #182 ) ;
#143 = ORGANIZATION ( 'UNSPECIFIED', 'UNSPECIFIED', '' ) ;
#144 = FACE_OUTER_BOUND ( 'NONE', #190, .T. ) ;
#145 = DIRECTION ( 'NONE',  ( 3.491481338843133355E-15, -1.224646799147353207E-16, 1.000000000000000000 ) ) ;
#146 = CARTESIAN_POINT ( 'NONE',  ( 2.779219145719134403E-13, -9.748188521212932624E-15, 79.60000000000000853 ) ) ;
#147 = ADVANCED_FACE ( 'NONE', ( #141, #62 ), #93, .T. ) ;
#148 = PLANE ( 'NONE',  #122 ) ;
#149 = LOCAL_TIME ( 9, 40, 26.00000000000000000, #128 ) ;
#150 = DIRECTION ( 'NONE',  ( 0.0000000000000000000, 1.000000000000000000, 0.0000000000000000000 ) ) ;
#151 = AXIS2_PLACEMENT_3D ( 'NONE', #222, #137, #50 ) ;
#152 = ADVANCED_FACE ( 'NONE', ( #183 ), #148, .F. ) ;
#153 = CC_DESIGN_PERSON_AND_ORGANIZATION_ASSIGNMENT ( #108, #73, ( #61 ) ) ;
#154 = SHAPE_DEFINITION_REPRESENTATION ( #117, #74 ) ;
#155 = VERTEX_POINT ( 'NONE', #189 ) ;
#156 = AXIS2_PLACEMENT_3D ( 'NONE', #8, #49, #83 ) ;
#157 = ADVANCED_FACE ( 'NONE', ( #133, #144 ), #69, .T. ) ;
#158 =( LENGTH_UNIT ( ) NAMED_UNIT ( * ) SI_UNIT ( .MILLI., .METRE. ) );
#159 = LOCAL_TIME ( 9, 40, 26.00000000000000000, #204 ) ;
#160 = APPROVAL_DATE_TIME ( #38, #196 ) ;
#161 = FACE_OUTER_BOUND ( 'NONE', #17, .T. ) ;
#162 = FACE_OUTER_BOUND ( 'NONE', #210, .T. ) ;
#163 = AXIS2_PLACEMENT_3D ( 'NONE', #30, #179, #217 ) ;
#164 = DIRECTION ( 'NONE',  ( 4.275831445896958607E-31, 1.000000000000000000, 1.224646799147353207E-16 ) ) ;
#165 = ORIENTED_EDGE ( 'NONE', *, *, #72, .F. ) ;
#166 = FACE_OUTER_BOUND ( 'NONE', #112, .T. ) ;
#167 = ADVANCED_FACE ( 'NONE', ( #27 ), #98, .T. ) ;
#168 = CARTESIAN_POINT ( 'NONE',  ( 2.793185071074506684E-13, -9.797174393178826052E-15, 80.00000000000000000 ) ) ;
#169 =( GEOMETRIC_REPRESENTATION_CONTEXT ( 3 ) GLOBAL_UNCERTAINTY_ASSIGNED_CONTEXT ( ( #103 ) ) GLOBAL_UNIT_ASSIGNED_CONTEXT ( ( #158, #209, #125 ) ) REPRESENTATION_CONTEXT ( 'NONE', 'WORKASPACE' ) );
#170 = EDGE_CURVE ( 'NONE', #107, #107, #200, .T. ) ;
#171 = CALENDAR_DATE ( 2021, 8, 12 ) ;
#172 = APPROVAL_PERSON_ORGANIZATION ( #214, #10, #68 ) ;
#173 = PERSON_AND_ORGANIZATION_ROLE ( 'creator' ) ;
#174 = PERSON_AND_ORGANIZATION ( #95, #143 ) ;
#175 = PERSON_AND_ORGANIZATION ( #95, #143 ) ;
#176 = EDGE_LOOP ( 'NONE', ( #25 ) ) ;
#177 = APPROVAL_ROLE ( '' ) ;
#178 = AXIS2_PLACEMENT_3D ( 'NONE', #5, #115, #181 ) ;
#179 = DIRECTION ( 'NONE',  ( 3.491481338843133355E-15, -1.276467311168695266E-16, 1.000000000000000000 ) ) ;
#180 = DIRECTION ( 'NONE',  ( 0.0000000000000000000, -1.000000000000000000, 0.0000000000000000000 ) ) ;
#181 = DIRECTION ( 'NONE',  ( -4.456761796588770537E-31, -1.000000000000000000, -1.276467311168695266E-16 ) ) ;
#182 = LOCAL_TIME ( 9, 40, 26.00000000000000000, #211 ) ;
#183 = FACE_OUTER_BOUND ( 'NONE', #82, .T. ) ;
#184 = CARTESIAN_POINT ( 'NONE',  ( 2.793185071074506684E-13, -9.797174393178826052E-15, 80.00000000000000000 ) ) ;
#185 = VERTEX_POINT ( 'NONE', #32 ) ;
#186 = AXIS2_PLACEMENT_3D ( 'NONE', #66, #135, #164 ) ;
#187 = AXIS2_PLACEMENT_3D ( 'NONE', #120, #48, #198 ) ;
#188 = CARTESIAN_POINT ( 'NONE',  ( 2.793185071074506684E-13, 2.599999999999992539, 80.00000000000000000 ) ) ;
#189 = CARTESIAN_POINT ( 'NONE',  ( 2.779219145719134403E-13, 2.999999999999992895, 79.60000000000000853 ) ) ;
#190 = EDGE_LOOP ( 'NONE', ( #23 ) ) ;
#191 = CARTESIAN_POINT ( 'NONE',  ( 4.189777606611760026E-14, -1.999999999999998224, 12.00000000000000000 ) ) ;
#192 = CALENDAR_DATE ( 2021, 8, 12 ) ;
#193 = CARTESIAN_POINT ( 'NONE',  ( -3.813724655436561320E-30, -1.999999999999999112, -1.092294154062470257E-15 ) ) ;
#194 = EDGE_LOOP ( 'NONE', ( #43 ) ) ;
#195 = CIRCLE ( 'NONE', #163, 1.999999999999996669 ) ;
#196 = APPROVAL ( #94, 'UNSPECIFIED' ) ;
#197 = DIRECTION ( 'NONE',  ( -3.491481338843133355E-15, 1.224646799147353207E-16, -1.000000000000000000 ) ) ;
#198 = DIRECTION ( 'NONE',  ( -4.456761796588772289E-31, -1.000000000000000000, -1.276467311168695266E-16 ) ) ;
#199 = CYLINDRICAL_SURFACE ( 'NONE', #186, 2.999999999999997335 ) ;
#200 = CIRCLE ( 'NONE', #45, 2.600000000000002309 ) ;
#201 = DIRECTION ( 'NONE',  ( -3.491481338843133355E-15, 1.276467311168695266E-16, -1.000000000000000000 ) ) ;
#202 = FACE_OUTER_BOUND ( 'NONE', #218, .T. ) ;
#203 = ADVANCED_FACE ( 'NONE', ( #202 ), #102, .F. ) ;
#204 = COORDINATED_UNIVERSAL_TIME_OFFSET ( 1, 0, .AHEAD. ) ;
#205 = DATE_AND_TIME ( #39, #3 ) ;
#206 = VERTEX_POINT ( 'NONE', #193 ) ;
#207 = CC_DESIGN_APPROVAL ( #10, ( #127 ) ) ;
#208 = EDGE_LOOP ( 'NONE', ( #58 ) ) ;
#209 =( NAMED_UNIT ( * ) PLANE_ANGLE_UNIT ( ) SI_UNIT ( $, .RADIAN. ) );
#210 = EDGE_LOOP ( 'NONE', ( #221 ) ) ;
#211 = COORDINATED_UNIVERSAL_TIME_OFFSET ( 1, 0, .AHEAD. ) ;
#212 = CC_DESIGN_DATE_AND_TIME_ASSIGNMENT ( #42, #55, ( #71 ) ) ;
#213 = PLANE ( 'NONE',  #13 ) ;
#214 = PERSON_AND_ORGANIZATION ( #95, #143 ) ;
#215 = AXIS2_PLACEMENT_3D ( 'NONE', #1, #4, #126 ) ;
#216 = CARTESIAN_POINT ( 'NONE',  ( 1.070497048173233207E-13, -3.913681203143628758E-15, 30.66025403784433223 ) ) ;
#217 = DIRECTION ( 'NONE',  ( 0.0000000000000000000, -1.000000000000000000, 0.0000000000000000000 ) ) ;
#218 = EDGE_LOOP ( 'NONE', ( #116 ) ) ;
#219 = APPROVAL_PERSON_ORGANIZATION ( #109, #196, #77 ) ;
#220 = APPROVAL_PERSON_ORGANIZATION ( #174, #20, #177 ) ;
#221 = ORIENTED_EDGE ( 'NONE', *, *, #104, .T. ) ;
#222 = CARTESIAN_POINT ( 'NONE',  ( 2.793185071074506684E-13, 1.949687717460401753E-32, 80.00000000000000000 ) ) ;
#223 = CC_DESIGN_APPROVAL ( #196, ( #136 ) ) ;
ENDSEC;
END-ISO-10303-21;
