ISO-10303-21;
HEADER;
FILE_DESCRIPTION (( 'STEP AP203' ),
    '1' );
FILE_NAME ('372603.step',
    '2021-12-08T08:40:25',
    ( '' ),
    ( '' ),
    'SwSTEP 2.0',
    'SolidWorks 2019',
    '' );
FILE_SCHEMA (( 'CONFIG_CONTROL_DESIGN' ));
ENDSEC;

DATA;
#1 = EDGE_LOOP ( 'NONE', ( #95 ) ) ;
#2 = EDGE_LOOP ( 'NONE', ( #36 ) ) ;
#3 = CONICAL_SURFACE ( 'NONE', #134, 2.600000000000000977, 0.7853981633974516097 ) ;
#4 =( NAMED_UNIT ( * ) PLANE_ANGLE_UNIT ( ) SI_UNIT ( $, .RADIAN. ) );
#5 = VERTEX_POINT ( 'NONE', #54 ) ;
#6 = APPROVAL_STATUS ( 'not_yet_approved' ) ;
#7 = ADVANCED_FACE ( 'NONE', ( #129 ), #15, .F. ) ;
#8 = CC_DESIGN_APPROVAL ( #49, ( #43 ) ) ;
#9 =( LENGTH_UNIT ( ) NAMED_UNIT ( * ) SI_UNIT ( .MILLI., .METRE. ) );
#10 = DATE_AND_TIME ( #143, #215 ) ;
#11 = CIRCLE ( 'NONE', #152, 1.999999999999996669 ) ;
#12 = EDGE_CURVE ( 'NONE', #24, #24, #111, .T. ) ;
#13 = APPROVAL ( #6, 'UNSPECIFIED' ) ;
#14 = PERSON_AND_ORGANIZATION ( #27, #208 ) ;
#15 = PLANE ( 'NONE',  #21 ) ;
#16 = FACE_OUTER_BOUND ( 'NONE', #33, .T. ) ;
#17 = DIRECTION ( 'NONE',  ( -4.275831445896958607E-31, -1.000000000000000000, -1.224646799147353207E-16 ) ) ;
#18 = CC_DESIGN_APPROVAL ( #41, ( #127 ) ) ;
#19 = DIRECTION ( 'NONE',  ( 3.491481338843133355E-15, -1.276467311168695266E-16, 1.000000000000000000 ) ) ;
#20 = CARTESIAN_POINT ( 'NONE',  ( 5.492816181635874941E-14, -2.008144859350673443E-15, 15.73205080756886609 ) ) ;
#21 = AXIS2_PLACEMENT_3D ( 'NONE', #133, #96, #17 ) ;
#22 = CARTESIAN_POINT ( 'NONE',  ( -3.813724655436561320E-30, -1.999999999999999112, -1.092294154062470257E-15 ) ) ;
#23 = CARTESIAN_POINT ( 'NONE',  ( 4.189777606611760026E-14, 2.249639673992779569E-32, 12.00000000000000000 ) ) ;
#24 = VERTEX_POINT ( 'NONE', #101 ) ;
#25 = FACE_OUTER_BOUND ( 'NONE', #66, .T. ) ;
#26 = DATE_AND_TIME ( #211, #98 ) ;
#27 = PERSON ( 'UNSPECIFIED', 'UNSPECIFIED', 'UNSPECIFIED', ('UNSPECIFIED'), ('UNSPECIFIED'), ('UNSPECIFIED') ) ;
#28 = CC_DESIGN_PERSON_AND_ORGANIZATION_ASSIGNMENT ( #213, #59, ( #43 ) ) ;
#29 = CONICAL_SURFACE ( 'NONE', #187, 6.999999999999998224, 0.2617993877991502405 ) ;
#30 = PRODUCT_DEFINITION ( 'UNKNOWN', '', #127, #110 ) ;
#31 = COORDINATED_UNIVERSAL_TIME_OFFSET ( 1, 0, .AHEAD. ) ;
#32 = AXIS2_PLACEMENT_3D ( 'NONE', #158, #205, #139 ) ;
#33 = EDGE_LOOP ( 'NONE', ( #153 ) ) ;
#34 = EDGE_LOOP ( 'NONE', ( #37 ) ) ;
#35 = CC_DESIGN_DATE_AND_TIME_ASSIGNMENT ( #26, #217, ( #43 ) ) ;
#36 = ORIENTED_EDGE ( 'NONE', *, *, #137, .T. ) ;
#37 = ORIENTED_EDGE ( 'NONE', *, *, #201, .T. ) ;
#38 = VERTEX_POINT ( 'NONE', #22 ) ;
#39 = APPROVAL_PERSON_ORGANIZATION ( #42, #49, #78 ) ;
#40 = PERSON_AND_ORGANIZATION ( #27, #208 ) ;
#41 = APPROVAL ( #93, 'UNSPECIFIED' ) ;
#42 = PERSON_AND_ORGANIZATION ( #27, #208 ) ;
#43 = SECURITY_CLASSIFICATION ( '', '', #109 ) ;
#44 = CALENDAR_DATE ( 2021, 8, 12 ) ;
#45 = EDGE_LOOP ( 'NONE', ( #168 ) ) ;
#46 = DIRECTION ( 'NONE',  ( -4.456761796588770537E-31, -1.000000000000000000, -1.276467311168695266E-16 ) ) ;
#47 = AXIS2_PLACEMENT_3D ( 'NONE', #63, #19, #99 ) ;
#48 = FACE_OUTER_BOUND ( 'NONE', #34, .T. ) ;
#49 = APPROVAL ( #180, 'UNSPECIFIED' ) ;
#50 = FACE_OUTER_BOUND ( 'NONE', #1, .T. ) ;
#51 = CARTESIAN_POINT ( 'NONE',  ( 2.094888803305880013E-13, -7.347880794884118356E-15, 60.00000000000000000 ) ) ;
#52 = CC_DESIGN_DATE_AND_TIME_ASSIGNMENT ( #10, #162, ( #30 ) ) ;
#53 = CARTESIAN_POINT ( 'NONE',  ( 1.070497048173233207E-13, -3.913681203143628758E-15, 30.66025403784433223 ) ) ;
#54 = CARTESIAN_POINT ( 'NONE',  ( 2.080922877950507480E-13, 2.999999999999993783, 59.60000000000000142 ) ) ;
#55 = DATE_AND_TIME ( #209, #191 ) ;
#56 = CARTESIAN_POINT ( 'NONE',  ( 2.080922877950507480E-13, -7.298894922918224927E-15, 59.60000000000000142 ) ) ;
#57 = APPROVAL_DATE_TIME ( #92, #41 ) ;
#58 = ADVANCED_FACE ( 'NONE', ( #16 ), #117, .F. ) ;
#59 = PERSON_AND_ORGANIZATION_ROLE ( 'classification_officer' ) ;
#60 = CALENDAR_DATE ( 2021, 8, 12 ) ;
#61 = AXIS2_PLACEMENT_3D ( 'NONE', #20, #112, #119 ) ;
#62 = ADVANCED_BREP_SHAPE_REPRESENTATION ( '372603', ( #103, #100, #32 ), #65 ) ;
#63 = CARTESIAN_POINT ( 'NONE',  ( -2.922372296118807037E-30, 8.339173982571312709E-32, -8.370006918287312040E-16 ) ) ;
#64 = DIRECTION ( 'NONE',  ( -3.491481338843133355E-15, 1.224646799147353207E-16, -1.000000000000000000 ) ) ;
#65 =( GEOMETRIC_REPRESENTATION_CONTEXT ( 3 ) GLOBAL_UNCERTAINTY_ASSIGNED_CONTEXT ( ( #220 ) ) GLOBAL_UNIT_ASSIGNED_CONTEXT ( ( #9, #4, #173 ) ) REPRESENTATION_CONTEXT ( 'NONE', 'WORKASPACE' ) );
#66 = EDGE_LOOP ( 'NONE', ( #154 ) ) ;
#67 = FACE_OUTER_BOUND ( 'NONE', #91, .T. ) ;
#68 = EDGE_LOOP ( 'NONE', ( #200 ) ) ;
#69 = AXIS2_PLACEMENT_3D ( 'NONE', #182, #188, #206 ) ;
#70 = DIRECTION ( 'NONE',  ( 0.0000000000000000000, 1.000000000000000000, 0.0000000000000000000 ) ) ;
#71 = APPLICATION_CONTEXT ( 'configuration controlled 3d designs of mechanical parts and assemblies' ) ;
#72 = DIRECTION ( 'NONE',  ( 3.491481338843133355E-15, -1.276467311168695266E-16, 1.000000000000000000 ) ) ;
#73 = DIRECTION ( 'NONE',  ( 3.491481338843133355E-15, -1.224646799147353207E-16, 1.000000000000000000 ) ) ;
#74 = APPROVAL_ROLE ( '' ) ;
#75 = APPROVAL_ROLE ( '' ) ;
#76 = EDGE_CURVE ( 'NONE', #88, #88, #11, .T. ) ;
#77 = AXIS2_PLACEMENT_3D ( 'NONE', #170, #72, #123 ) ;
#78 = APPROVAL_ROLE ( '' ) ;
#79 = PERSON_AND_ORGANIZATION_ROLE ( 'creator' ) ;
#80 = DIRECTION ( 'NONE',  ( 3.491481338843133355E-15, -1.276467311168695266E-16, 1.000000000000000000 ) ) ;
#81 = APPLICATION_CONTEXT ( 'configuration controlled 3d designs of mechanical parts and assemblies' ) ;
#82 = DIRECTION ( 'NONE',  ( -3.491481338843133355E-15, 1.224646799147353207E-16, -1.000000000000000000 ) ) ;
#83 = ADVANCED_FACE ( 'NONE', ( #48, #67 ), #132, .T. ) ;
#84 = ORIENTED_EDGE ( 'NONE', *, *, #12, .T. ) ;
#85 = CC_DESIGN_PERSON_AND_ORGANIZATION_ASSIGNMENT ( #174, #157, ( #147 ) ) ;
#86 = FACE_OUTER_BOUND ( 'NONE', #169, .T. ) ;
#87 = ADVANCED_FACE ( 'NONE', ( #50, #148 ), #184, .T. ) ;
#88 = VERTEX_POINT ( 'NONE', #192 ) ;
#89 = APPLICATION_PROTOCOL_DEFINITION ( 'international standard', 'config_control_design', 1994, #81 ) ;
#90 = DIRECTION ( 'NONE',  ( -4.275831445896958607E-31, -1.000000000000000000, -1.224646799147353207E-16 ) ) ;
#91 = EDGE_LOOP ( 'NONE', ( #183 ) ) ;
#92 = DATE_AND_TIME ( #60, #118 ) ;
#93 = APPROVAL_STATUS ( 'not_yet_approved' ) ;
#94 = DIRECTION ( 'NONE',  ( 3.491481338843133355E-15, -1.276467311168695266E-16, 1.000000000000000000 ) ) ;
#95 = ORIENTED_EDGE ( 'NONE', *, *, #116, .T. ) ;
#96 = DIRECTION ( 'NONE',  ( 3.491481338843133355E-15, -1.224646799147353207E-16, 1.000000000000000000 ) ) ;
#97 = DIRECTION ( 'NONE',  ( 4.275831445896958607E-31, 1.000000000000000000, 1.224646799147353207E-16 ) ) ;
#98 = LOCAL_TIME ( 9, 40, 25.00000000000000000, #177 ) ;
#99 = DIRECTION ( 'NONE',  ( -4.456761796588772289E-31, -1.000000000000000000, -1.276467311168695266E-16 ) ) ;
#100 = MANIFOLD_SOLID_BREP ( 'Corps-Déplacer/Copier1[2]', #212 ) ;
#101 = CARTESIAN_POINT ( 'NONE',  ( 2.094888803305880013E-13, 2.599999999999993872, 60.00000000000000000 ) ) ;
#102 = MECHANICAL_CONTEXT ( 'NONE', #71, 'mechanical' ) ;
#103 = MANIFOLD_SOLID_BREP ( 'Corps-Déplacer/Copier1[1]', #104 ) ;
#104 = CLOSED_SHELL ( 'NONE', ( #83, #216, #58, #114, #179 ) ) ;
#105 = VERTEX_POINT ( 'NONE', #160 ) ;
#106 = APPROVAL_DATE_TIME ( #55, #13 ) ;
#107 = DATE_AND_TIME ( #44, #126 ) ;
#108 = PRODUCT_DEFINITION_SHAPE ( 'NONE', 'NONE',  #30 ) ;
#109 = SECURITY_CLASSIFICATION_LEVEL ( 'unclassified' ) ;
#110 = DESIGN_CONTEXT ( 'detailed design', #81, 'design' ) ;
#111 = CIRCLE ( 'NONE', #159, 2.600000000000000977 ) ;
#112 = DIRECTION ( 'NONE',  ( -3.491481338843133355E-15, 1.276467311168695266E-16, -1.000000000000000000 ) ) ;
#113 = FACE_OUTER_BOUND ( 'NONE', #2, .T. ) ;
#114 = ADVANCED_FACE ( 'NONE', ( #149, #113 ), #29, .T. ) ;
#115 = ORIENTED_EDGE ( 'NONE', *, *, #223, .F. ) ;
#116 = EDGE_CURVE ( 'NONE', #38, #38, #141, .T. ) ;
#117 = PLANE ( 'NONE',  #145 ) ;
#118 = LOCAL_TIME ( 9, 40, 25.00000000000000000, #163 ) ;
#119 = DIRECTION ( 'NONE',  ( 0.0000000000000000000, -1.000000000000000000, 0.0000000000000000000 ) ) ;
#120 = APPLICATION_PROTOCOL_DEFINITION ( 'international standard', 'config_control_design', 1994, #71 ) ;
#121 = FACE_BOUND ( 'NONE', #202, .T. ) ;
#122 = APPROVAL_PERSON_ORGANIZATION ( #140, #41, #75 ) ;
#123 = DIRECTION ( 'NONE',  ( 0.0000000000000000000, -1.000000000000000000, 0.0000000000000000000 ) ) ;
#124 = VERTEX_POINT ( 'NONE', #125 ) ;
#125 = CARTESIAN_POINT ( 'NONE',  ( 4.189777606611760026E-14, -1.999999999999998224, 12.00000000000000000 ) ) ;
#126 = LOCAL_TIME ( 9, 40, 25.00000000000000000, #146 ) ;
#127 = PRODUCT_DEFINITION_FORMATION_WITH_SPECIFIED_SOURCE ( 'ANY', '', #147, .NOT_KNOWN. ) ;
#128 = CARTESIAN_POINT ( 'NONE',  ( 0.0000000000000000000, 0.0000000000000000000, 0.0000000000000000000 ) ) ;
#129 = FACE_OUTER_BOUND ( 'NONE', #45, .T. ) ;
#130 = AXIS2_PLACEMENT_3D ( 'NONE', #198, #204, #46 ) ;
#131 = DIRECTION ( 'NONE',  ( -3.491481338843133355E-15, 1.224646799147353207E-16, -1.000000000000000000 ) ) ;
#132 = CYLINDRICAL_SURFACE ( 'NONE', #196, 2.999999999999997335 ) ;
#133 = CARTESIAN_POINT ( 'NONE',  ( -4.275841943548041050E-31, 1.499763464742198365E-32, -1.224649805794121352E-16 ) ) ;
#134 = AXIS2_PLACEMENT_3D ( 'NONE', #135, #210, #136 ) ;
#135 = CARTESIAN_POINT ( 'NONE',  ( 2.094888803305880013E-13, -7.347880794884118356E-15, 60.00000000000000000 ) ) ;
#136 = DIRECTION ( 'NONE',  ( 0.0000000000000000000, 1.000000000000000000, 0.0000000000000000000 ) ) ;
#137 = EDGE_CURVE ( 'NONE', #105, #105, #164, .T. ) ;
#138 = COORDINATED_UNIVERSAL_TIME_OFFSET ( 1, 0, .AHEAD. ) ;
#139 = DIRECTION ( 'NONE',  ( 1.000000000000000000, 0.0000000000000000000, 0.0000000000000000000 ) ) ;
#140 = PERSON_AND_ORGANIZATION ( #27, #208 ) ;
#141 = CIRCLE ( 'NONE', #47, 1.999999999999999112 ) ;
#142 = CC_DESIGN_PERSON_AND_ORGANIZATION_ASSIGNMENT ( #14, #144, ( #127 ) ) ;
#143 = CALENDAR_DATE ( 2021, 8, 12 ) ;
#144 = PERSON_AND_ORGANIZATION_ROLE ( 'design_supplier' ) ;
#145 = AXIS2_PLACEMENT_3D ( 'NONE', #167, #64, #218 ) ;
#146 = COORDINATED_UNIVERSAL_TIME_OFFSET ( 1, 0, .AHEAD. ) ;
#147 = PRODUCT ( '372603', '372603', '', ( #102 ) ) ;
#148 = FACE_OUTER_BOUND ( 'NONE', #68, .T. ) ;
#149 = FACE_BOUND ( 'NONE', #166, .T. ) ;
#150 = PRODUCT_RELATED_PRODUCT_CATEGORY ( 'detail', '', ( #147 ) ) ;
#151 = CARTESIAN_POINT ( 'NONE',  ( 4.189777606611760026E-14, -1.531760773402434319E-15, 12.00000000000000000 ) ) ;
#152 = AXIS2_PLACEMENT_3D ( 'NONE', #151, #80, #222 ) ;
#153 = ORIENTED_EDGE ( 'NONE', *, *, #12, .F. ) ;
#154 = ORIENTED_EDGE ( 'NONE', *, *, #201, .F. ) ;
#155 = DIRECTION ( 'NONE',  ( -3.491481338843133355E-15, 1.224646799147353207E-16, -1.000000000000000000 ) ) ;
#156 = APPROVAL_PERSON_ORGANIZATION ( #171, #13, #74 ) ;
#157 = PERSON_AND_ORGANIZATION_ROLE ( 'design_owner' ) ;
#158 = CARTESIAN_POINT ( 'NONE',  ( 0.0000000000000000000, 0.0000000000000000000, 0.0000000000000000000 ) ) ;
#159 = AXIS2_PLACEMENT_3D ( 'NONE', #51, #82, #186 ) ;
#160 = CARTESIAN_POINT ( 'NONE',  ( 5.492816181635874941E-14, -2.999999999999999556, 15.73205080756886609 ) ) ;
#161 = ADVANCED_FACE ( 'NONE', ( #86 ), #165, .T. ) ;
#162 = DATE_TIME_ROLE ( 'creation_date' ) ;
#163 = COORDINATED_UNIVERSAL_TIME_OFFSET ( 1, 0, .AHEAD. ) ;
#164 = CIRCLE ( 'NONE', #61, 2.999999999999997335 ) ;
#165 = PLANE ( 'NONE',  #69 ) ;
#166 = EDGE_LOOP ( 'NONE', ( #199 ) ) ;
#167 = CARTESIAN_POINT ( 'NONE',  ( 2.094888803305880013E-13, 1.949687717460404764E-32, 60.00000000000000000 ) ) ;
#168 = ORIENTED_EDGE ( 'NONE', *, *, #116, .F. ) ;
#169 = EDGE_LOOP ( 'NONE', ( #197 ) ) ;
#170 = CARTESIAN_POINT ( 'NONE',  ( 4.189777606611760026E-14, -1.531760773402434319E-15, 12.00000000000000000 ) ) ;
#171 = PERSON_AND_ORGANIZATION ( #27, #208 ) ;
#172 = AXIS2_PLACEMENT_3D ( 'NONE', #56, #155, #70 ) ;
#173 =( NAMED_UNIT ( * ) SI_UNIT ( $, .STERADIAN. ) SOLID_ANGLE_UNIT ( ) );
#174 = PERSON_AND_ORGANIZATION ( #27, #208 ) ;
#175 = PERSON_AND_ORGANIZATION ( #27, #208 ) ;
#176 = CC_DESIGN_PERSON_AND_ORGANIZATION_ASSIGNMENT ( #175, #178, ( #30 ) ) ;
#177 = COORDINATED_UNIVERSAL_TIME_OFFSET ( 1, 0, .AHEAD. ) ;
#178 = PERSON_AND_ORGANIZATION_ROLE ( 'creator' ) ;
#179 = ADVANCED_FACE ( 'NONE', ( #190 ), #189, .F. ) ;
#180 = APPROVAL_STATUS ( 'not_yet_approved' ) ;
#181 = EDGE_LOOP ( 'NONE', ( #115 ) ) ;
#182 = CARTESIAN_POINT ( 'NONE',  ( 4.189777606611760026E-14, 2.249639673992779569E-32, 12.00000000000000000 ) ) ;
#183 = ORIENTED_EDGE ( 'NONE', *, *, #137, .F. ) ;
#184 = CYLINDRICAL_SURFACE ( 'NONE', #130, 1.999999999999997780 ) ;
#185 = AXIS2_PLACEMENT_3D ( 'NONE', #23, #73, #90 ) ;
#186 = DIRECTION ( 'NONE',  ( 0.0000000000000000000, 1.000000000000000000, 0.0000000000000000000 ) ) ;
#187 = AXIS2_PLACEMENT_3D ( 'NONE', #53, #94, #219 ) ;
#188 = DIRECTION ( 'NONE',  ( 3.491481338843133355E-15, -1.224646799147353207E-16, 1.000000000000000000 ) ) ;
#189 = PLANE ( 'NONE',  #185 ) ;
#190 = FACE_OUTER_BOUND ( 'NONE', #181, .T. ) ;
#191 = LOCAL_TIME ( 9, 40, 25.00000000000000000, #138 ) ;
#192 = CARTESIAN_POINT ( 'NONE',  ( 4.189777606611760026E-14, -1.999999999999998224, 12.00000000000000000 ) ) ;
#193 = SHAPE_DEFINITION_REPRESENTATION ( #108, #62 ) ;
#194 = CIRCLE ( 'NONE', #172, 3.000000000000001332 ) ;
#195 = CC_DESIGN_SECURITY_CLASSIFICATION ( #43, ( #127 ) ) ;
#196 = AXIS2_PLACEMENT_3D ( 'NONE', #128, #131, #97 ) ;
#197 = ORIENTED_EDGE ( 'NONE', *, *, #76, .T. ) ;
#198 = CARTESIAN_POINT ( 'NONE',  ( -6.413839710158237013E-31, 0.0000000000000000000, -1.836996703606440502E-16 ) ) ;
#199 = ORIENTED_EDGE ( 'NONE', *, *, #223, .T. ) ;
#200 = ORIENTED_EDGE ( 'NONE', *, *, #76, .F. ) ;
#201 = EDGE_CURVE ( 'NONE', #5, #5, #194, .T. ) ;
#202 = EDGE_LOOP ( 'NONE', ( #84 ) ) ;
#203 = CIRCLE ( 'NONE', #77, 1.999999999999996669 ) ;
#204 = DIRECTION ( 'NONE',  ( 3.491481338843133355E-15, -1.276467311168695266E-16, 1.000000000000000000 ) ) ;
#205 = DIRECTION ( 'NONE',  ( 0.0000000000000000000, 0.0000000000000000000, 1.000000000000000000 ) ) ;
#206 = DIRECTION ( 'NONE',  ( -4.275831445896958607E-31, -1.000000000000000000, -1.224646799147353207E-16 ) ) ;
#207 = CC_DESIGN_PERSON_AND_ORGANIZATION_ASSIGNMENT ( #40, #79, ( #127 ) ) ;
#208 = ORGANIZATION ( 'UNSPECIFIED', 'UNSPECIFIED', '' ) ;
#209 = CALENDAR_DATE ( 2021, 8, 12 ) ;
#210 = DIRECTION ( 'NONE',  ( -3.491481338843133355E-15, 1.224646799147353207E-16, -1.000000000000000000 ) ) ;
#211 = CALENDAR_DATE ( 2021, 8, 12 ) ;
#212 = CLOSED_SHELL ( 'NONE', ( #161, #87, #7 ) ) ;
#213 = PERSON_AND_ORGANIZATION ( #27, #208 ) ;
#214 = APPROVAL_DATE_TIME ( #107, #49 ) ;
#215 = LOCAL_TIME ( 9, 40, 25.00000000000000000, #31 ) ;
#216 = ADVANCED_FACE ( 'NONE', ( #25, #121 ), #3, .T. ) ;
#217 = DATE_TIME_ROLE ( 'classification_date' ) ;
#218 = DIRECTION ( 'NONE',  ( 4.275831445896958607E-31, 1.000000000000000000, 1.224646799147353207E-16 ) ) ;
#219 = DIRECTION ( 'NONE',  ( 0.0000000000000000000, -1.000000000000000000, 0.0000000000000000000 ) ) ;
#220 = UNCERTAINTY_MEASURE_WITH_UNIT (LENGTH_MEASURE( 1.000000000000000082E-05 ), #9, 'distance_accuracy_value', 'NONE');
#221 = CC_DESIGN_APPROVAL ( #13, ( #30 ) ) ;
#222 = DIRECTION ( 'NONE',  ( 0.0000000000000000000, -1.000000000000000000, 0.0000000000000000000 ) ) ;
#223 = EDGE_CURVE ( 'NONE', #124, #124, #203, .T. ) ;
ENDSEC;
END-ISO-10303-21;
