ISO-10303-21;
HEADER;
FILE_DESCRIPTION (( 'STEP AP203' ),
    '1' );
FILE_NAME ('372602.step',
    '2021-12-08T08:40:25',
    ( '' ),
    ( '' ),
    'SwSTEP 2.0',
    'SolidWorks 2019',
    '' );
FILE_SCHEMA (( 'CONFIG_CONTROL_DESIGN' ));
ENDSEC;

DATA;
#1 = CALENDAR_DATE ( 2021, 8, 12 ) ;
#2 = DATE_TIME_ROLE ( 'creation_date' ) ;
#3 = CC_DESIGN_SECURITY_CLASSIFICATION ( #217, ( #196 ) ) ;
#4 = ORIENTED_EDGE ( 'NONE', *, *, #107, .F. ) ;
#5 = DIRECTION ( 'NONE',  ( 0.0000000000000000000, 1.000000000000000000, 0.0000000000000000000 ) ) ;
#6 = ADVANCED_FACE ( 'NONE', ( #41 ), #9, .F. ) ;
#7 = DIRECTION ( 'NONE',  ( -3.491481338843133355E-15, 1.224646799147353207E-16, -1.000000000000000000 ) ) ;
#8 = EDGE_LOOP ( 'NONE', ( #25 ) ) ;
#9 = PLANE ( 'NONE',  #40 ) ;
#10 = FACE_OUTER_BOUND ( 'NONE', #8, .T. ) ;
#11 = CARTESIAN_POINT ( 'NONE',  ( 4.189777606611760026E-14, -1.531760773402434319E-15, 12.00000000000000000 ) ) ;
#12 = CLOSED_SHELL ( 'NONE', ( #104, #139, #6, #14, #167 ) ) ;
#13 =( NAMED_UNIT ( * ) PLANE_ANGLE_UNIT ( ) SI_UNIT ( $, .RADIAN. ) );
#14 = ADVANCED_FACE ( 'NONE', ( #75, #211 ), #176, .T. ) ;
#15 = FACE_OUTER_BOUND ( 'NONE', #42, .T. ) ;
#16 = COORDINATED_UNIVERSAL_TIME_OFFSET ( 1, 0, .AHEAD. ) ;
#17 = CIRCLE ( 'NONE', #44, 1.999999999999996669 ) ;
#18 = APPLICATION_PROTOCOL_DEFINITION ( 'international standard', 'config_control_design', 1994, #163 ) ;
#19 = APPROVAL_STATUS ( 'not_yet_approved' ) ;
#20 = EDGE_LOOP ( 'NONE', ( #22 ) ) ;
#21 = ORIENTED_EDGE ( 'NONE', *, *, #155, .T. ) ;
#22 = ORIENTED_EDGE ( 'NONE', *, *, #57, .F. ) ;
#23 = PRODUCT_DEFINITION ( 'UNKNOWN', '', #196, #205 ) ;
#24 =( GEOMETRIC_REPRESENTATION_CONTEXT ( 3 ) GLOBAL_UNCERTAINTY_ASSIGNED_CONTEXT ( ( #169 ) ) GLOBAL_UNIT_ASSIGNED_CONTEXT ( ( #95, #13, #32 ) ) REPRESENTATION_CONTEXT ( 'NONE', 'WORKASPACE' ) );
#25 = ORIENTED_EDGE ( 'NONE', *, *, #180, .T. ) ;
#26 = CIRCLE ( 'NONE', #101, 1.999999999999996669 ) ;
#27 = CC_DESIGN_PERSON_AND_ORGANIZATION_ASSIGNMENT ( #203, #118, ( #196 ) ) ;
#28 = APPROVAL ( #19, 'UNSPECIFIED' ) ;
#29 = DIRECTION ( 'NONE',  ( 3.491481338843133355E-15, -1.276467311168695266E-16, 1.000000000000000000 ) ) ;
#30 = CARTESIAN_POINT ( 'NONE',  ( 1.731774744066194397E-13, 2.999999999999991562, 49.60000000000000853 ) ) ;
#31 = CC_DESIGN_PERSON_AND_ORGANIZATION_ASSIGNMENT ( #55, #150, ( #53 ) ) ;
#32 =( NAMED_UNIT ( * ) SI_UNIT ( $, .STERADIAN. ) SOLID_ANGLE_UNIT ( ) );
#33 = CONICAL_SURFACE ( 'NONE', #142, 2.599999999999997424, 0.7853981633974516097 ) ;
#34 = APPROVAL_DATE_TIME ( #73, #125 ) ;
#35 = APPROVAL_DATE_TIME ( #38, #28 ) ;
#36 = DATE_TIME_ROLE ( 'classification_date' ) ;
#37 = LOCAL_TIME ( 9, 40, 25.00000000000000000, #16 ) ;
#38 = DATE_AND_TIME ( #72, #166 ) ;
#39 = EDGE_LOOP ( 'NONE', ( #126 ) ) ;
#40 = AXIS2_PLACEMENT_3D ( 'NONE', #60, #7, #89 ) ;
#41 = FACE_OUTER_BOUND ( 'NONE', #39, .T. ) ;
#42 = EDGE_LOOP ( 'NONE', ( #195 ) ) ;
#43 = ORIENTED_EDGE ( 'NONE', *, *, #107, .T. ) ;
#44 = AXIS2_PLACEMENT_3D ( 'NONE', #11, #29, #114 ) ;
#45 = EDGE_LOOP ( 'NONE', ( #61 ) ) ;
#46 = DIRECTION ( 'NONE',  ( -4.456761796588770537E-31, -1.000000000000000000, -1.276467311168695266E-16 ) ) ;
#47 = DIRECTION ( 'NONE',  ( 0.0000000000000000000, -1.000000000000000000, 0.0000000000000000000 ) ) ;
#48 = DIRECTION ( 'NONE',  ( -4.275831445896958607E-31, -1.000000000000000000, -1.224646799147353207E-16 ) ) ;
#49 = DIRECTION ( 'NONE',  ( 3.491481338843133355E-15, -1.224646799147353207E-16, 1.000000000000000000 ) ) ;
#50 = VERTEX_POINT ( 'NONE', #131 ) ;
#51 = APPROVAL_ROLE ( '' ) ;
#52 = AXIS2_PLACEMENT_3D ( 'NONE', #208, #144, #143 ) ;
#53 = PRODUCT ( '372602', '372602', '', ( #69 ) ) ;
#54 = PERSON_AND_ORGANIZATION ( #130, #106 ) ;
#55 = PERSON_AND_ORGANIZATION ( #130, #106 ) ;
#56 = COORDINATED_UNIVERSAL_TIME_OFFSET ( 1, 0, .AHEAD. ) ;
#57 = EDGE_CURVE ( 'NONE', #129, #129, #83, .T. ) ;
#58 = DIRECTION ( 'NONE',  ( 0.0000000000000000000, -1.000000000000000000, 0.0000000000000000000 ) ) ;
#59 = CIRCLE ( 'NONE', #127, 2.599999999999997424 ) ;
#60 = CARTESIAN_POINT ( 'NONE',  ( 1.745740669421566678E-13, 1.949687717460403943E-32, 50.00000000000000000 ) ) ;
#61 = ORIENTED_EDGE ( 'NONE', *, *, #87, .T. ) ;
#62 = AXIS2_PLACEMENT_3D ( 'NONE', #162, #215, #46 ) ;
#63 = FACE_OUTER_BOUND ( 'NONE', #77, .T. ) ;
#64 = DIRECTION ( 'NONE',  ( 3.491481338843133355E-15, -1.276467311168695266E-16, 1.000000000000000000 ) ) ;
#65 = CARTESIAN_POINT ( 'NONE',  ( 4.189777606611760026E-14, -1.531760773402434319E-15, 12.00000000000000000 ) ) ;
#66 = CARTESIAN_POINT ( 'NONE',  ( 0.0000000000000000000, 0.0000000000000000000, 0.0000000000000000000 ) ) ;
#67 = PRODUCT_DEFINITION_SHAPE ( 'NONE', 'NONE',  #23 ) ;
#68 = VERTEX_POINT ( 'NONE', #111 ) ;
#69 = MECHANICAL_CONTEXT ( 'NONE', #119, 'mechanical' ) ;
#70 = DATE_AND_TIME ( #1, #122 ) ;
#71 = APPROVAL ( #220, 'UNSPECIFIED' ) ;
#72 = CALENDAR_DATE ( 2021, 8, 12 ) ;
#73 = DATE_AND_TIME ( #88, #187 ) ;
#74 = CC_DESIGN_APPROVAL ( #28, ( #217 ) ) ;
#75 = FACE_BOUND ( 'NONE', #157, .T. ) ;
#76 = FACE_OUTER_BOUND ( 'NONE', #159, .T. ) ;
#77 = EDGE_LOOP ( 'NONE', ( #192 ) ) ;
#78 = AXIS2_PLACEMENT_3D ( 'NONE', #80, #81, #58 ) ;
#79 = CC_DESIGN_PERSON_AND_ORGANIZATION_ASSIGNMENT ( #170, #202, ( #196 ) ) ;
#80 = CARTESIAN_POINT ( 'NONE',  ( 5.492816181635871154E-14, -2.008144859350672260E-15, 15.73205080756885721 ) ) ;
#81 = DIRECTION ( 'NONE',  ( -3.491481338843133355E-15, 1.276467311168695266E-16, -1.000000000000000000 ) ) ;
#82 = CARTESIAN_POINT ( 'NONE',  ( 4.189777606611760026E-14, 2.249639673992779296E-32, 12.00000000000000000 ) ) ;
#83 = CIRCLE ( 'NONE', #78, 2.999999999999994671 ) ;
#84 = CARTESIAN_POINT ( 'NONE',  ( 4.189777606611760026E-14, 2.249639673992779296E-32, 12.00000000000000000 ) ) ;
#85 = FACE_BOUND ( 'NONE', #45, .T. ) ;
#86 = VERTEX_POINT ( 'NONE', #147 ) ;
#87 = EDGE_CURVE ( 'NONE', #86, #86, #59, .T. ) ;
#88 = CALENDAR_DATE ( 2021, 8, 12 ) ;
#89 = DIRECTION ( 'NONE',  ( 4.275831445896958607E-31, 1.000000000000000000, 1.224646799147353207E-16 ) ) ;
#90 = CYLINDRICAL_SURFACE ( 'NONE', #120, 2.999999999999994671 ) ;
#91 = PRODUCT_RELATED_PRODUCT_CATEGORY ( 'detail', '', ( #53 ) ) ;
#92 = LOCAL_TIME ( 9, 40, 25.00000000000000000, #98 ) ;
#93 = AXIS2_PLACEMENT_3D ( 'NONE', #108, #103, #138 ) ;
#94 = DIRECTION ( 'NONE',  ( 0.0000000000000000000, 1.000000000000000000, 0.0000000000000000000 ) ) ;
#95 =( LENGTH_UNIT ( ) NAMED_UNIT ( * ) SI_UNIT ( .MILLI., .METRE. ) );
#96 = CARTESIAN_POINT ( 'NONE',  ( 1.745740669421566678E-13, -6.123233995736766085E-15, 50.00000000000000000 ) ) ;
#97 = CLOSED_SHELL ( 'NONE', ( #151, #197, #100 ) ) ;
#98 = COORDINATED_UNIVERSAL_TIME_OFFSET ( 1, 0, .AHEAD. ) ;
#99 = SHAPE_DEFINITION_REPRESENTATION ( #67, #223 ) ;
#100 = ADVANCED_FACE ( 'NONE', ( #76 ), #140, .F. ) ;
#101 = AXIS2_PLACEMENT_3D ( 'NONE', #65, #64, #47 ) ;
#102 = EDGE_LOOP ( 'NONE', ( #43 ) ) ;
#103 = DIRECTION ( 'NONE',  ( 3.491481338843133355E-15, -1.276467311168695266E-16, 1.000000000000000000 ) ) ;
#104 = ADVANCED_FACE ( 'NONE', ( #123, #178 ), #90, .T. ) ;
#105 = EDGE_LOOP ( 'NONE', ( #141 ) ) ;
#106 = ORGANIZATION ( 'UNSPECIFIED', 'UNSPECIFIED', '' ) ;
#107 = EDGE_CURVE ( 'NONE', #50, #50, #214, .T. ) ;
#108 = CARTESIAN_POINT ( 'NONE',  ( 1.070497048173233207E-13, -3.913681203143628758E-15, 30.66025403784433223 ) ) ;
#109 = VERTEX_POINT ( 'NONE', #30 ) ;
#110 = APPROVAL_PERSON_ORGANIZATION ( #153, #125, #207 ) ;
#111 = CARTESIAN_POINT ( 'NONE',  ( 4.189777606611760026E-14, -1.999999999999998224, 12.00000000000000000 ) ) ;
#112 = CC_DESIGN_PERSON_AND_ORGANIZATION_ASSIGNMENT ( #168, #174, ( #23 ) ) ;
#113 = FACE_OUTER_BOUND ( 'NONE', #105, .T. ) ;
#114 = DIRECTION ( 'NONE',  ( 0.0000000000000000000, -1.000000000000000000, 0.0000000000000000000 ) ) ;
#115 = APPROVAL_PERSON_ORGANIZATION ( #189, #28, #204 ) ;
#116 = SECURITY_CLASSIFICATION_LEVEL ( 'unclassified' ) ;
#117 = CALENDAR_DATE ( 2021, 8, 12 ) ;
#118 = PERSON_AND_ORGANIZATION_ROLE ( 'creator' ) ;
#119 = APPLICATION_CONTEXT ( 'configuration controlled 3d designs of mechanical parts and assemblies' ) ;
#120 = AXIS2_PLACEMENT_3D ( 'NONE', #193, #210, #124 ) ;
#121 = DATE_AND_TIME ( #117, #92 ) ;
#122 = LOCAL_TIME ( 9, 40, 25.00000000000000000, #134 ) ;
#123 = FACE_OUTER_BOUND ( 'NONE', #156, .T. ) ;
#124 = DIRECTION ( 'NONE',  ( 4.275831445896959482E-31, 1.000000000000000000, 1.224646799147353207E-16 ) ) ;
#125 = APPROVAL ( #191, 'UNSPECIFIED' ) ;
#126 = ORIENTED_EDGE ( 'NONE', *, *, #87, .F. ) ;
#127 = AXIS2_PLACEMENT_3D ( 'NONE', #209, #154, #5 ) ;
#128 = PLANE ( 'NONE',  #221 ) ;
#129 = VERTEX_POINT ( 'NONE', #182 ) ;
#130 = PERSON ( 'UNSPECIFIED', 'UNSPECIFIED', 'UNSPECIFIED', ('UNSPECIFIED'), ('UNSPECIFIED'), ('UNSPECIFIED') ) ;
#131 = CARTESIAN_POINT ( 'NONE',  ( -3.813724655436561320E-30, -1.999999999999999112, -1.092294154062470257E-15 ) ) ;
#132 = APPROVAL_PERSON_ORGANIZATION ( #219, #71, #51 ) ;
#133 = DIRECTION ( 'NONE',  ( 0.0000000000000000000, 0.0000000000000000000, 1.000000000000000000 ) ) ;
#134 = COORDINATED_UNIVERSAL_TIME_OFFSET ( 1, 0, .AHEAD. ) ;
#135 = APPROVAL_DATE_TIME ( #152, #71 ) ;
#136 = COORDINATED_UNIVERSAL_TIME_OFFSET ( 1, 0, .AHEAD. ) ;
#137 = AXIS2_PLACEMENT_3D ( 'NONE', #213, #199, #165 ) ;
#138 = DIRECTION ( 'NONE',  ( 0.0000000000000000000, -1.000000000000000000, 0.0000000000000000000 ) ) ;
#139 = ADVANCED_FACE ( 'NONE', ( #63, #85 ), #33, .T. ) ;
#140 = PLANE ( 'NONE',  #52 ) ;
#141 = ORIENTED_EDGE ( 'NONE', *, *, #155, .F. ) ;
#142 = AXIS2_PLACEMENT_3D ( 'NONE', #96, #216, #94 ) ;
#143 = DIRECTION ( 'NONE',  ( -4.275831445896958607E-31, -1.000000000000000000, -1.224646799147353207E-16 ) ) ;
#144 = DIRECTION ( 'NONE',  ( 3.491481338843133355E-15, -1.224646799147353207E-16, 1.000000000000000000 ) ) ;
#145 = DIRECTION ( 'NONE',  ( 3.491481338843133355E-15, -1.224646799147353207E-16, 1.000000000000000000 ) ) ;
#146 = PLANE ( 'NONE',  #149 ) ;
#147 = CARTESIAN_POINT ( 'NONE',  ( 1.745740669421566678E-13, 2.599999999999991207, 50.00000000000000000 ) ) ;
#148 = CALENDAR_DATE ( 2021, 8, 12 ) ;
#149 = AXIS2_PLACEMENT_3D ( 'NONE', #82, #49, #48 ) ;
#150 = PERSON_AND_ORGANIZATION_ROLE ( 'design_owner' ) ;
#151 = ADVANCED_FACE ( 'NONE', ( #10 ), #146, .T. ) ;
#152 = DATE_AND_TIME ( #148, #37 ) ;
#153 = PERSON_AND_ORGANIZATION ( #130, #106 ) ;
#154 = DIRECTION ( 'NONE',  ( -3.491481338843133355E-15, 1.224646799147353207E-16, -1.000000000000000000 ) ) ;
#155 = EDGE_CURVE ( 'NONE', #68, #68, #17, .T. ) ;
#156 = EDGE_LOOP ( 'NONE', ( #177 ) ) ;
#157 = EDGE_LOOP ( 'NONE', ( #21 ) ) ;
#158 = CC_DESIGN_APPROVAL ( #71, ( #23 ) ) ;
#159 = EDGE_LOOP ( 'NONE', ( #4 ) ) ;
#160 = DIRECTION ( 'NONE',  ( -4.275831445896958607E-31, -1.000000000000000000, -1.224646799147353207E-16 ) ) ;
#161 = APPLICATION_PROTOCOL_DEFINITION ( 'international standard', 'config_control_design', 1994, #119 ) ;
#162 = CARTESIAN_POINT ( 'NONE',  ( -6.413839710158237013E-31, 0.0000000000000000000, -1.836996703606440502E-16 ) ) ;
#163 = APPLICATION_CONTEXT ( 'configuration controlled 3d designs of mechanical parts and assemblies' ) ;
#164 = CC_DESIGN_DATE_AND_TIME_ASSIGNMENT ( #70, #2, ( #23 ) ) ;
#165 = DIRECTION ( 'NONE',  ( 0.0000000000000000000, 1.000000000000000000, 0.0000000000000000000 ) ) ;
#166 = LOCAL_TIME ( 9, 40, 25.00000000000000000, #136 ) ;
#167 = ADVANCED_FACE ( 'NONE', ( #113 ), #128, .F. ) ;
#168 = PERSON_AND_ORGANIZATION ( #130, #106 ) ;
#169 = UNCERTAINTY_MEASURE_WITH_UNIT (LENGTH_MEASURE( 1.000000000000000082E-05 ), #95, 'distance_accuracy_value', 'NONE');
#170 = PERSON_AND_ORGANIZATION ( #130, #106 ) ;
#171 = MANIFOLD_SOLID_BREP ( 'Corps-Déplacer/Copier1[1]', #12 ) ;
#172 = AXIS2_PLACEMENT_3D ( 'NONE', #194, #200, #218 ) ;
#173 = MANIFOLD_SOLID_BREP ( 'Corps-Déplacer/Copier1[2]', #97 ) ;
#174 = PERSON_AND_ORGANIZATION_ROLE ( 'creator' ) ;
#175 = CC_DESIGN_DATE_AND_TIME_ASSIGNMENT ( #121, #36, ( #217 ) ) ;
#176 = CONICAL_SURFACE ( 'NONE', #93, 6.999999999999998224, 0.2617993877991502405 ) ;
#177 = ORIENTED_EDGE ( 'NONE', *, *, #185, .T. ) ;
#178 = FACE_OUTER_BOUND ( 'NONE', #20, .T. ) ;
#179 = EDGE_LOOP ( 'NONE', ( #181 ) ) ;
#180 = EDGE_CURVE ( 'NONE', #184, #184, #26, .T. ) ;
#181 = ORIENTED_EDGE ( 'NONE', *, *, #57, .T. ) ;
#182 = CARTESIAN_POINT ( 'NONE',  ( 5.492816181635871154E-14, -2.999999999999996891, 15.73205080756885721 ) ) ;
#183 = CIRCLE ( 'NONE', #137, 2.999999999999997335 ) ;
#184 = VERTEX_POINT ( 'NONE', #201 ) ;
#185 = EDGE_CURVE ( 'NONE', #109, #109, #183, .T. ) ;
#186 = CYLINDRICAL_SURFACE ( 'NONE', #62, 1.999999999999997780 ) ;
#187 = LOCAL_TIME ( 9, 40, 25.00000000000000000, #56 ) ;
#188 = DIRECTION ( 'NONE',  ( 1.000000000000000000, 0.0000000000000000000, 0.0000000000000000000 ) ) ;
#189 = PERSON_AND_ORGANIZATION ( #130, #106 ) ;
#190 = CC_DESIGN_APPROVAL ( #125, ( #196 ) ) ;
#191 = APPROVAL_STATUS ( 'not_yet_approved' ) ;
#192 = ORIENTED_EDGE ( 'NONE', *, *, #185, .F. ) ;
#193 = CARTESIAN_POINT ( 'NONE',  ( 0.0000000000000000000, 0.0000000000000000000, 0.0000000000000000000 ) ) ;
#194 = CARTESIAN_POINT ( 'NONE',  ( -2.922372296118807037E-30, 8.339173982571312709E-32, -8.370006918287312040E-16 ) ) ;
#195 = ORIENTED_EDGE ( 'NONE', *, *, #180, .F. ) ;
#196 = PRODUCT_DEFINITION_FORMATION_WITH_SPECIFIED_SOURCE ( 'ANY', '', #53, .NOT_KNOWN. ) ;
#197 = ADVANCED_FACE ( 'NONE', ( #198, #15 ), #186, .T. ) ;
#198 = FACE_OUTER_BOUND ( 'NONE', #102, .T. ) ;
#199 = DIRECTION ( 'NONE',  ( -3.491481338843133355E-15, 1.224646799147353207E-16, -1.000000000000000000 ) ) ;
#200 = DIRECTION ( 'NONE',  ( 3.491481338843133355E-15, -1.276467311168695266E-16, 1.000000000000000000 ) ) ;
#201 = CARTESIAN_POINT ( 'NONE',  ( 4.189777606611760026E-14, -1.999999999999998224, 12.00000000000000000 ) ) ;
#202 = PERSON_AND_ORGANIZATION_ROLE ( 'design_supplier' ) ;
#203 = PERSON_AND_ORGANIZATION ( #130, #106 ) ;
#204 = APPROVAL_ROLE ( '' ) ;
#205 = DESIGN_CONTEXT ( 'detailed design', #163, 'design' ) ;
#206 = AXIS2_PLACEMENT_3D ( 'NONE', #66, #133, #188 ) ;
#207 = APPROVAL_ROLE ( '' ) ;
#208 = CARTESIAN_POINT ( 'NONE',  ( -4.275870630573520576E-31, 1.499773526796243858E-32, -1.224658022084771305E-16 ) ) ;
#209 = CARTESIAN_POINT ( 'NONE',  ( 1.745740669421566678E-13, -6.123233995736766085E-15, 50.00000000000000000 ) ) ;
#210 = DIRECTION ( 'NONE',  ( -3.491481338843133355E-15, 1.224646799147353207E-16, -1.000000000000000000 ) ) ;
#211 = FACE_OUTER_BOUND ( 'NONE', #179, .T. ) ;
#212 = CC_DESIGN_PERSON_AND_ORGANIZATION_ASSIGNMENT ( #54, #222, ( #217 ) ) ;
#213 = CARTESIAN_POINT ( 'NONE',  ( 1.731774744066194397E-13, -6.074248123770872657E-15, 49.60000000000000853 ) ) ;
#214 = CIRCLE ( 'NONE', #172, 1.999999999999999112 ) ;
#215 = DIRECTION ( 'NONE',  ( 3.491481338843133355E-15, -1.276467311168695266E-16, 1.000000000000000000 ) ) ;
#216 = DIRECTION ( 'NONE',  ( -3.491481338843133355E-15, 1.224646799147353207E-16, -1.000000000000000000 ) ) ;
#217 = SECURITY_CLASSIFICATION ( '', '', #116 ) ;
#218 = DIRECTION ( 'NONE',  ( -4.456761796588772289E-31, -1.000000000000000000, -1.276467311168695266E-16 ) ) ;
#219 = PERSON_AND_ORGANIZATION ( #130, #106 ) ;
#220 = APPROVAL_STATUS ( 'not_yet_approved' ) ;
#221 = AXIS2_PLACEMENT_3D ( 'NONE', #84, #145, #160 ) ;
#222 = PERSON_AND_ORGANIZATION_ROLE ( 'classification_officer' ) ;
#223 = ADVANCED_BREP_SHAPE_REPRESENTATION ( '372602', ( #171, #173, #206 ), #24 ) ;
ENDSEC;
END-ISO-10303-21;
