ISO-10303-21;
HEADER;
FILE_DESCRIPTION (( 'STEP AP203' ),
    '1' );
FILE_NAME ('372601.step',
    '2021-12-08T08:40:24',
    ( '' ),
    ( '' ),
    'SwSTEP 2.0',
    'SolidWorks 2019',
    '' );
FILE_SCHEMA (( 'CONFIG_CONTROL_DESIGN' ));
ENDSEC;

DATA;
#1 = CC_DESIGN_DATE_AND_TIME_ASSIGNMENT ( #73, #195, ( #45 ) ) ;
#2 = APPROVAL_ROLE ( '' ) ;
#3 = APPROVAL_DATE_TIME ( #163, #159 ) ;
#4 = APPROVAL_STATUS ( 'not_yet_approved' ) ;
#5 = CONICAL_SURFACE ( 'NONE', #167, 1.600000000000001421, 0.7853981633974512766 ) ;
#6 = PERSON_AND_ORGANIZATION ( #21, #129 ) ;
#7 = PLANE ( 'NONE',  #202 ) ;
#8 = AXIS2_PLACEMENT_3D ( 'NONE', #77, #151, #30 ) ;
#9 = PRODUCT_DEFINITION_SHAPE ( 'NONE', 'NONE',  #115 ) ;
#10 = PRODUCT_RELATED_PRODUCT_CATEGORY ( 'detail', '', ( #44 ) ) ;
#11 = DIRECTION ( 'NONE',  ( -3.491481338843133355E-15, 1.224646799147353207E-16, -1.000000000000000000 ) ) ;
#12 = VERTEX_POINT ( 'NONE', #65 ) ;
#13 = VERTEX_POINT ( 'NONE', #47 ) ;
#14 = AXIS2_PLACEMENT_3D ( 'NONE', #190, #54, #157 ) ;
#15 = CC_DESIGN_APPROVAL ( #38, ( #115 ) ) ;
#16 =( NAMED_UNIT ( * ) PLANE_ANGLE_UNIT ( ) SI_UNIT ( $, .RADIAN. ) );
#17 = MANIFOLD_SOLID_BREP ( 'Corps-Déplacer/Copier1[2]', #145 ) ;
#18 = VERTEX_POINT ( 'NONE', #31 ) ;
#19 = DIRECTION ( 'NONE',  ( -3.491481338843133355E-15, 1.224646799147353207E-16, -1.000000000000000000 ) ) ;
#20 = LOCAL_TIME ( 9, 40, 24.00000000000000000, #91 ) ;
#21 = PERSON ( 'UNSPECIFIED', 'UNSPECIFIED', 'UNSPECIFIED', ('UNSPECIFIED'), ('UNSPECIFIED'), ('UNSPECIFIED') ) ;
#22 = PERSON_AND_ORGANIZATION_ROLE ( 'classification_officer' ) ;
#23 = COORDINATED_UNIVERSAL_TIME_OFFSET ( 1, 0, .AHEAD. ) ;
#24 = CALENDAR_DATE ( 2021, 8, 12 ) ;
#25 = EDGE_CURVE ( 'NONE', #18, #18, #165, .T. ) ;
#26 = AXIS2_PLACEMENT_3D ( 'NONE', #198, #126, #111 ) ;
#27 = ORIENTED_EDGE ( 'NONE', *, *, #53, .T. ) ;
#28 = ORIENTED_EDGE ( 'NONE', *, *, #53, .F. ) ;
#29 = EDGE_LOOP ( 'NONE', ( #60 ) ) ;
#30 = DIRECTION ( 'NONE',  ( -4.275831445896958607E-31, -1.000000000000000000, -1.224646799147353207E-16 ) ) ;
#31 = CARTESIAN_POINT ( 'NONE',  ( 2.430071011834821320E-13, 1.999999999999992673, 69.60000000000000853 ) ) ;
#32 = EDGE_CURVE ( 'NONE', #12, #12, #172, .T. ) ;
#33 = ADVANCED_FACE ( 'NONE', ( #109 ), #46, .F. ) ;
#34 = FACE_OUTER_BOUND ( 'NONE', #199, .T. ) ;
#35 = DIRECTION ( 'NONE',  ( 4.275831445896958607E-31, 1.000000000000000000, 1.224646799147352961E-16 ) ) ;
#36 = CALENDAR_DATE ( 2021, 8, 12 ) ;
#37 = DATE_AND_TIME ( #24, #154 ) ;
#38 = APPROVAL ( #40, 'UNSPECIFIED' ) ;
#39 = CALENDAR_DATE ( 2021, 8, 12 ) ;
#40 = APPROVAL_STATUS ( 'not_yet_approved' ) ;
#41 = EDGE_CURVE ( 'NONE', #175, #175, #102, .T. ) ;
#42 = EDGE_LOOP ( 'NONE', ( #164 ) ) ;
#43 = EDGE_LOOP ( 'NONE', ( #78 ) ) ;
#44 = PRODUCT ( '372601', '372601', '', ( #87 ) ) ;
#45 = SECURITY_CLASSIFICATION ( '', '', #69 ) ;
#46 = PLANE ( 'NONE',  #8 ) ;
#47 = CARTESIAN_POINT ( 'NONE',  ( 2.444036937190193601E-13, 1.599999999999992761, 70.00000000000000000 ) ) ;
#48 =( GEOMETRIC_REPRESENTATION_CONTEXT ( 3 ) GLOBAL_UNCERTAINTY_ASSIGNED_CONTEXT ( ( #86 ) ) GLOBAL_UNIT_ASSIGNED_CONTEXT ( ( #101, #16, #68 ) ) REPRESENTATION_CONTEXT ( 'NONE', 'WORKASPACE' ) );
#49 = ADVANCED_FACE ( 'NONE', ( #200 ), #7, .F. ) ;
#50 = FACE_OUTER_BOUND ( 'NONE', #42, .T. ) ;
#51 = CC_DESIGN_DATE_AND_TIME_ASSIGNMENT ( #158, #194, ( #115 ) ) ;
#52 = FACE_BOUND ( 'NONE', #148, .T. ) ;
#53 = EDGE_CURVE ( 'NONE', #13, #13, #108, .T. ) ;
#54 = DIRECTION ( 'NONE',  ( 0.0000000000000000000, 0.0000000000000000000, 1.000000000000000000 ) ) ;
#55 = COORDINATED_UNIVERSAL_TIME_OFFSET ( 1, 0, .AHEAD. ) ;
#56 = AXIS2_PLACEMENT_3D ( 'NONE', #114, #99, #201 ) ;
#57 = CALENDAR_DATE ( 2021, 8, 12 ) ;
#58 = PERSON_AND_ORGANIZATION ( #21, #129 ) ;
#59 = APPROVAL_ROLE ( '' ) ;
#60 = ORIENTED_EDGE ( 'NONE', *, *, #25, .T. ) ;
#61 = DIRECTION ( 'NONE',  ( -3.491481338843133355E-15, 1.224646799147353207E-16, -1.000000000000000000 ) ) ;
#62 = ORIENTED_EDGE ( 'NONE', *, *, #133, .T. ) ;
#63 = CARTESIAN_POINT ( 'NONE',  ( 2.444036937190193601E-13, -8.572527594031472993E-15, 70.00000000000000000 ) ) ;
#64 = CLOSED_SHELL ( 'NONE', ( #33, #139, #160, #121 ) ) ;
#65 = CARTESIAN_POINT ( 'NONE',  ( 1.047444401652940007E-13, 1.999999999999993561, 30.00000000000000000 ) ) ;
#66 = AXIS2_PLACEMENT_3D ( 'NONE', #110, #11, #168 ) ;
#67 = DIRECTION ( 'NONE',  ( 4.275831445896958607E-31, 1.000000000000000000, 1.224646799147353207E-16 ) ) ;
#68 =( NAMED_UNIT ( * ) SI_UNIT ( $, .STERADIAN. ) SOLID_ANGLE_UNIT ( ) );
#69 = SECURITY_CLASSIFICATION_LEVEL ( 'unclassified' ) ;
#70 = SHAPE_DEFINITION_REPRESENTATION ( #9, #136 ) ;
#71 = LOCAL_TIME ( 9, 40, 24.00000000000000000, #179 ) ;
#72 = CC_DESIGN_APPROVAL ( #159, ( #45 ) ) ;
#73 = DATE_AND_TIME ( #39, #100 ) ;
#74 = PERSON_AND_ORGANIZATION ( #21, #129 ) ;
#75 = PRODUCT_DEFINITION_FORMATION_WITH_SPECIFIED_SOURCE ( 'ANY', '', #44, .NOT_KNOWN. ) ;
#76 = CARTESIAN_POINT ( 'NONE',  ( -3.741344385279970880E-31, 1.312286958251130044E-32, -1.071563620763795137E-16 ) ) ;
#77 = CARTESIAN_POINT ( 'NONE',  ( 1.047444401652940007E-13, 1.499759782661850218E-32, 30.00000000000000000 ) ) ;
#78 = ORIENTED_EDGE ( 'NONE', *, *, #41, .T. ) ;
#79 = EDGE_LOOP ( 'NONE', ( #107 ) ) ;
#80 = PLANE ( 'NONE',  #178 ) ;
#81 = AXIS2_PLACEMENT_3D ( 'NONE', #116, #85, #98 ) ;
#82 = PLANE ( 'NONE',  #56 ) ;
#83 = LOCAL_TIME ( 9, 40, 24.00000000000000000, #23 ) ;
#84 = APPLICATION_PROTOCOL_DEFINITION ( 'international standard', 'config_control_design', 1994, #193 ) ;
#85 = DIRECTION ( 'NONE',  ( -3.491481338843133355E-15, 1.224646799147353207E-16, -1.000000000000000000 ) ) ;
#86 = UNCERTAINTY_MEASURE_WITH_UNIT (LENGTH_MEASURE( 1.000000000000000082E-05 ), #101, 'distance_accuracy_value', 'NONE');
#87 = MECHANICAL_CONTEXT ( 'NONE', #193, 'mechanical' ) ;
#88 = CC_DESIGN_PERSON_AND_ORGANIZATION_ASSIGNMENT ( #192, #118, ( #75 ) ) ;
#89 = APPROVAL_PERSON_ORGANIZATION ( #58, #170, #2 ) ;
#90 = DATE_AND_TIME ( #36, #83 ) ;
#91 = COORDINATED_UNIVERSAL_TIME_OFFSET ( 1, 0, .AHEAD. ) ;
#92 = CC_DESIGN_PERSON_AND_ORGANIZATION_ASSIGNMENT ( #93, #181, ( #44 ) ) ;
#93 = PERSON_AND_ORGANIZATION ( #21, #129 ) ;
#94 = AXIS2_PLACEMENT_3D ( 'NONE', #123, #61, #135 ) ;
#95 = CARTESIAN_POINT ( 'NONE',  ( 1.047444401652940007E-13, -3.673940397442059178E-15, 30.00000000000000000 ) ) ;
#96 = EDGE_LOOP ( 'NONE', ( #97 ) ) ;
#97 = ORIENTED_EDGE ( 'NONE', *, *, #41, .F. ) ;
#98 = DIRECTION ( 'NONE',  ( 4.275831445896959482E-31, 1.000000000000000000, 1.224646799147353207E-16 ) ) ;
#99 = DIRECTION ( 'NONE',  ( 3.491481338843133355E-15, -1.224646799147353207E-16, 1.000000000000000000 ) ) ;
#100 = LOCAL_TIME ( 9, 40, 24.00000000000000000, #117 ) ;
#101 =( LENGTH_UNIT ( ) NAMED_UNIT ( * ) SI_UNIT ( .MILLI., .METRE. ) );
#102 = CIRCLE ( 'NONE', #66, 1.999999999999997113 ) ;
#103 = FACE_OUTER_BOUND ( 'NONE', #43, .T. ) ;
#104 = PERSON_AND_ORGANIZATION ( #21, #129 ) ;
#105 = APPROVAL_ROLE ( '' ) ;
#106 = APPROVAL_STATUS ( 'not_yet_approved' ) ;
#107 = ORIENTED_EDGE ( 'NONE', *, *, #25, .F. ) ;
#108 = CIRCLE ( 'NONE', #26, 1.600000000000001421 ) ;
#109 = FACE_OUTER_BOUND ( 'NONE', #182, .T. ) ;
#110 = CARTESIAN_POINT ( 'NONE',  ( 1.047444401652940007E-13, -3.673940397442059178E-15, 30.00000000000000000 ) ) ;
#111 = DIRECTION ( 'NONE',  ( 0.0000000000000000000, 1.000000000000000000, 0.0000000000000000000 ) ) ;
#112 = DIRECTION ( 'NONE',  ( -3.491481338843133355E-15, 1.224646799147353207E-16, -1.000000000000000000 ) ) ;
#113 = CC_DESIGN_PERSON_AND_ORGANIZATION_ASSIGNMENT ( #74, #22, ( #45 ) ) ;
#114 = CARTESIAN_POINT ( 'NONE',  ( 1.047444401652940007E-13, 1.499759782661850218E-32, 30.00000000000000000 ) ) ;
#115 = PRODUCT_DEFINITION ( 'UNKNOWN', '', #75, #134 ) ;
#116 = CARTESIAN_POINT ( 'NONE',  ( -7.482688770559941761E-31, 2.624573916502260087E-32, -2.143127241527590274E-16 ) ) ;
#117 = COORDINATED_UNIVERSAL_TIME_OFFSET ( 1, 0, .AHEAD. ) ;
#118 = PERSON_AND_ORGANIZATION_ROLE ( 'design_supplier' ) ;
#119 = APPROVAL_DATE_TIME ( #37, #170 ) ;
#120 = PERSON_AND_ORGANIZATION_ROLE ( 'creator' ) ;
#121 = ADVANCED_FACE ( 'NONE', ( #173 ), #80, .F. ) ;
#122 = DIRECTION ( 'NONE',  ( -4.275831445896958607E-31, -1.000000000000000000, -1.224646799147353207E-16 ) ) ;
#123 = CARTESIAN_POINT ( 'NONE',  ( 2.430071011834821320E-13, -8.523541722065579564E-15, 69.60000000000000853 ) ) ;
#124 = CARTESIAN_POINT ( 'NONE',  ( 1.047444401652940007E-13, 1.999999999999993561, 30.00000000000000000 ) ) ;
#125 = VERTEX_POINT ( 'NONE', #128 ) ;
#126 = DIRECTION ( 'NONE',  ( -3.491481338843133355E-15, 1.224646799147353207E-16, -1.000000000000000000 ) ) ;
#127 = APPLICATION_CONTEXT ( 'configuration controlled 3d designs of mechanical parts and assemblies' ) ;
#128 = CARTESIAN_POINT ( 'NONE',  ( 1.068974121233950054E-31, 1.999999999999994005, 3.061663567671088681E-17 ) ) ;
#129 = ORGANIZATION ( 'UNSPECIFIED', 'UNSPECIFIED', '' ) ;
#130 = AXIS2_PLACEMENT_3D ( 'NONE', #203, #19, #35 ) ;
#131 = CALENDAR_DATE ( 2021, 8, 12 ) ;
#132 = APPLICATION_PROTOCOL_DEFINITION ( 'international standard', 'config_control_design', 1994, #127 ) ;
#133 = EDGE_CURVE ( 'NONE', #125, #125, #153, .T. ) ;
#134 = DESIGN_CONTEXT ( 'detailed design', #127, 'design' ) ;
#135 = DIRECTION ( 'NONE',  ( 0.0000000000000000000, 1.000000000000000000, 0.0000000000000000000 ) ) ;
#136 = ADVANCED_BREP_SHAPE_REPRESENTATION ( '372601', ( #149, #17, #14 ), #48 ) ;
#137 = CARTESIAN_POINT ( 'NONE',  ( 2.444036937190193601E-13, 1.199807826129474044E-32, 70.00000000000000000 ) ) ;
#138 = AXIS2_PLACEMENT_3D ( 'NONE', #140, #152, #177 ) ;
#139 = ADVANCED_FACE ( 'NONE', ( #34, #176 ), #189, .T. ) ;
#140 = CARTESIAN_POINT ( 'NONE',  ( 0.0000000000000000000, 0.0000000000000000000, 0.0000000000000000000 ) ) ;
#141 = AXIS2_PLACEMENT_3D ( 'NONE', #95, #169, #150 ) ;
#142 = PERSON_AND_ORGANIZATION ( #21, #129 ) ;
#143 = APPROVAL_DATE_TIME ( #90, #38 ) ;
#144 = ADVANCED_FACE ( 'NONE', ( #187 ), #82, .T. ) ;
#145 = CLOSED_SHELL ( 'NONE', ( #49, #191, #144 ) ) ;
#146 = EDGE_LOOP ( 'NONE', ( #28 ) ) ;
#147 = APPROVAL_PERSON_ORGANIZATION ( #6, #38, #59 ) ;
#148 = EDGE_LOOP ( 'NONE', ( #27 ) ) ;
#149 = MANIFOLD_SOLID_BREP ( 'Corps-Déplacer/Copier1[1]', #64 ) ;
#150 = DIRECTION ( 'NONE',  ( 0.0000000000000000000, 1.000000000000000000, 0.0000000000000000000 ) ) ;
#151 = DIRECTION ( 'NONE',  ( 3.491481338843133355E-15, -1.224646799147353207E-16, 1.000000000000000000 ) ) ;
#152 = DIRECTION ( 'NONE',  ( -3.491481338843133355E-15, 1.224646799147353207E-16, -1.000000000000000000 ) ) ;
#153 = CIRCLE ( 'NONE', #81, 1.999999999999994005 ) ;
#154 = LOCAL_TIME ( 9, 40, 24.00000000000000000, #55 ) ;
#155 = DIRECTION ( 'NONE',  ( -3.491481338843133355E-15, 1.224646799147353207E-16, -1.000000000000000000 ) ) ;
#156 = CYLINDRICAL_SURFACE ( 'NONE', #130, 1.999999999999995781 ) ;
#157 = DIRECTION ( 'NONE',  ( 1.000000000000000000, 0.0000000000000000000, 0.0000000000000000000 ) ) ;
#158 = DATE_AND_TIME ( #131, #71 ) ;
#159 = APPROVAL ( #106, 'UNSPECIFIED' ) ;
#160 = ADVANCED_FACE ( 'NONE', ( #185, #52 ), #5, .T. ) ;
#161 = PERSON_AND_ORGANIZATION ( #21, #129 ) ;
#162 = CC_DESIGN_PERSON_AND_ORGANIZATION_ASSIGNMENT ( #104, #120, ( #75 ) ) ;
#163 = DATE_AND_TIME ( #57, #20 ) ;
#164 = ORIENTED_EDGE ( 'NONE', *, *, #133, .F. ) ;
#165 = CIRCLE ( 'NONE', #94, 2.000000000000001332 ) ;
#166 = EDGE_LOOP ( 'NONE', ( #62 ) ) ;
#167 = AXIS2_PLACEMENT_3D ( 'NONE', #63, #155, #174 ) ;
#168 = DIRECTION ( 'NONE',  ( 0.0000000000000000000, 1.000000000000000000, 0.0000000000000000000 ) ) ;
#169 = DIRECTION ( 'NONE',  ( -3.491481338843133355E-15, 1.224646799147353207E-16, -1.000000000000000000 ) ) ;
#170 = APPROVAL ( #4, 'UNSPECIFIED' ) ;
#171 = ORIENTED_EDGE ( 'NONE', *, *, #32, .T. ) ;
#172 = CIRCLE ( 'NONE', #141, 1.999999999999997113 ) ;
#173 = FACE_OUTER_BOUND ( 'NONE', #146, .T. ) ;
#174 = DIRECTION ( 'NONE',  ( 0.0000000000000000000, 1.000000000000000000, 0.0000000000000000000 ) ) ;
#175 = VERTEX_POINT ( 'NONE', #124 ) ;
#176 = FACE_OUTER_BOUND ( 'NONE', #29, .T. ) ;
#177 = DIRECTION ( 'NONE',  ( 4.275831445896958607E-31, 1.000000000000000000, 1.224646799147353207E-16 ) ) ;
#178 = AXIS2_PLACEMENT_3D ( 'NONE', #137, #112, #67 ) ;
#179 = COORDINATED_UNIVERSAL_TIME_OFFSET ( 1, 0, .AHEAD. ) ;
#180 = PERSON_AND_ORGANIZATION_ROLE ( 'creator' ) ;
#181 = PERSON_AND_ORGANIZATION_ROLE ( 'design_owner' ) ;
#182 = EDGE_LOOP ( 'NONE', ( #171 ) ) ;
#183 = ORIENTED_EDGE ( 'NONE', *, *, #32, .F. ) ;
#184 = CC_DESIGN_APPROVAL ( #170, ( #75 ) ) ;
#185 = FACE_OUTER_BOUND ( 'NONE', #79, .T. ) ;
#186 = CC_DESIGN_SECURITY_CLASSIFICATION ( #45, ( #75 ) ) ;
#187 = FACE_OUTER_BOUND ( 'NONE', #96, .T. ) ;
#188 = CC_DESIGN_PERSON_AND_ORGANIZATION_ASSIGNMENT ( #142, #180, ( #115 ) ) ;
#189 = CYLINDRICAL_SURFACE ( 'NONE', #138, 1.999999999999999112 ) ;
#190 = CARTESIAN_POINT ( 'NONE',  ( 0.0000000000000000000, 0.0000000000000000000, 0.0000000000000000000 ) ) ;
#191 = ADVANCED_FACE ( 'NONE', ( #50, #103 ), #156, .T. ) ;
#192 = PERSON_AND_ORGANIZATION ( #21, #129 ) ;
#193 = APPLICATION_CONTEXT ( 'configuration controlled 3d designs of mechanical parts and assemblies' ) ;
#194 = DATE_TIME_ROLE ( 'creation_date' ) ;
#195 = DATE_TIME_ROLE ( 'classification_date' ) ;
#196 = APPROVAL_PERSON_ORGANIZATION ( #161, #159, #105 ) ;
#197 = DIRECTION ( 'NONE',  ( 3.491481338843133355E-15, -1.224646799147353207E-16, 1.000000000000000000 ) ) ;
#198 = CARTESIAN_POINT ( 'NONE',  ( 2.444036937190193601E-13, -8.572527594031472993E-15, 70.00000000000000000 ) ) ;
#199 = EDGE_LOOP ( 'NONE', ( #183 ) ) ;
#200 = FACE_OUTER_BOUND ( 'NONE', #166, .T. ) ;
#201 = DIRECTION ( 'NONE',  ( -4.275831445896958607E-31, -1.000000000000000000, -1.224646799147353207E-16 ) ) ;
#202 = AXIS2_PLACEMENT_3D ( 'NONE', #76, #197, #122 ) ;
#203 = CARTESIAN_POINT ( 'NONE',  ( 0.0000000000000000000, 0.0000000000000000000, 0.0000000000000000000 ) ) ;
ENDSEC;
END-ISO-10303-21;
