ISO-10303-21;
HEADER;
FILE_DESCRIPTION (( 'STEP AP203' ),
    '1' );
FILE_NAME ('372600.step',
    '2021-12-08T08:40:24',
    ( '' ),
    ( '' ),
    'SwSTEP 2.0',
    'SolidWorks 2019',
    '' );
FILE_SCHEMA (( 'CONFIG_CONTROL_DESIGN' ));
ENDSEC;

DATA;
#1 = ORIENTED_EDGE ( 'NONE', *, *, #66, .F. ) ;
#2 = PERSON_AND_ORGANIZATION ( #75, #150 ) ;
#3 = SECURITY_CLASSIFICATION ( '', '', #127 ) ;
#4 = COORDINATED_UNIVERSAL_TIME_OFFSET ( 1, 0, .AHEAD. ) ;
#5 = MECHANICAL_CONTEXT ( 'NONE', #105, 'mechanical' ) ;
#6 = AXIS2_PLACEMENT_3D ( 'NONE', #149, #100, #69 ) ;
#7 = CC_DESIGN_APPROVAL ( #71, ( #3 ) ) ;
#8 = EDGE_LOOP ( 'NONE', ( #96 ) ) ;
#9 = DIRECTION ( 'NONE',  ( -3.491481338843133355E-15, 1.224646799147353207E-16, -1.000000000000000000 ) ) ;
#10 = FACE_OUTER_BOUND ( 'NONE', #42, .T. ) ;
#11 = ORIENTED_EDGE ( 'NONE', *, *, #73, .T. ) ;
#12 = CARTESIAN_POINT ( 'NONE',  ( 2.080922877950507480E-13, -7.298894922918224927E-15, 59.60000000000000142 ) ) ;
#13 = AXIS2_PLACEMENT_3D ( 'NONE', #59, #155, #31 ) ;
#14 = CC_DESIGN_PERSON_AND_ORGANIZATION_ASSIGNMENT ( #49, #103, ( #3 ) ) ;
#15 = APPLICATION_PROTOCOL_DEFINITION ( 'international standard', 'config_control_design', 1994, #105 ) ;
#16 = APPROVAL_STATUS ( 'not_yet_approved' ) ;
#17 =( NAMED_UNIT ( * ) SI_UNIT ( $, .STERADIAN. ) SOLID_ANGLE_UNIT ( ) );
#18 = PERSON_AND_ORGANIZATION ( #75, #150 ) ;
#19 = APPROVAL_STATUS ( 'not_yet_approved' ) ;
#20 = APPLICATION_CONTEXT ( 'configuration controlled 3d designs of mechanical parts and assemblies' ) ;
#21 = EDGE_CURVE ( 'NONE', #117, #117, #118, .T. ) ;
#22 = CARTESIAN_POINT ( 'NONE',  ( -3.741304549615519511E-31, 1.312272985780929536E-32, -1.071552211376035147E-16 ) ) ;
#23 = APPROVAL_PERSON_ORGANIZATION ( #139, #148, #129 ) ;
#24 = CARTESIAN_POINT ( 'NONE',  ( 1.069053792562853011E-31, 1.999999999999994005, 3.061891755426287241E-17 ) ) ;
#25 = FACE_OUTER_BOUND ( 'NONE', #8, .T. ) ;
#26 = CARTESIAN_POINT ( 'NONE',  ( 2.094888803305880013E-13, -7.347880794884118356E-15, 60.00000000000000000 ) ) ;
#27 = DIRECTION ( 'NONE',  ( -3.491481338843133355E-15, 1.224646799147353207E-16, -1.000000000000000000 ) ) ;
#28 = CARTESIAN_POINT ( 'NONE',  ( 2.094888803305880013E-13, 1.599999999999994094, 60.00000000000000000 ) ) ;
#29 =( GEOMETRIC_REPRESENTATION_CONTEXT ( 3 ) GLOBAL_UNCERTAINTY_ASSIGNED_CONTEXT ( ( #163 ) ) GLOBAL_UNIT_ASSIGNED_CONTEXT ( ( #138, #35, #17 ) ) REPRESENTATION_CONTEXT ( 'NONE', 'WORKASPACE' ) );
#30 = DATE_AND_TIME ( #50, #177 ) ;
#31 = DIRECTION ( 'NONE',  ( 1.000000000000000000, 0.0000000000000000000, 0.0000000000000000000 ) ) ;
#32 = COORDINATED_UNIVERSAL_TIME_OFFSET ( 1, 0, .AHEAD. ) ;
#33 = PRODUCT_DEFINITION_SHAPE ( 'NONE', 'NONE',  #131 ) ;
#34 = ORIENTED_EDGE ( 'NONE', *, *, #73, .F. ) ;
#35 =( NAMED_UNIT ( * ) PLANE_ANGLE_UNIT ( ) SI_UNIT ( $, .RADIAN. ) );
#36 = DIRECTION ( 'NONE',  ( 3.491481338843133355E-15, -1.224646799147353207E-16, 1.000000000000000000 ) ) ;
#37 = CC_DESIGN_DATE_AND_TIME_ASSIGNMENT ( #30, #90, ( #3 ) ) ;
#38 = CC_DESIGN_PERSON_AND_ORGANIZATION_ASSIGNMENT ( #2, #93, ( #168 ) ) ;
#39 = AXIS2_PLACEMENT_3D ( 'NONE', #65, #83, #195 ) ;
#40 = VERTEX_POINT ( 'NONE', #94 ) ;
#41 = FACE_BOUND ( 'NONE', #44, .T. ) ;
#42 = EDGE_LOOP ( 'NONE', ( #1 ) ) ;
#43 = DIRECTION ( 'NONE',  ( 4.275831445896958607E-31, 1.000000000000000000, 1.224646799147353207E-16 ) ) ;
#44 = EDGE_LOOP ( 'NONE', ( #60 ) ) ;
#45 = DIRECTION ( 'NONE',  ( 0.0000000000000000000, 1.000000000000000000, 0.0000000000000000000 ) ) ;
#46 = ADVANCED_FACE ( 'NONE', ( #111 ), #179, .F. ) ;
#47 = CARTESIAN_POINT ( 'NONE',  ( 7.681258945454893382E-14, 1.999999999999994005, 22.00000000000000000 ) ) ;
#48 = APPROVAL_ROLE ( '' ) ;
#49 = PERSON_AND_ORGANIZATION ( #75, #150 ) ;
#50 = CALENDAR_DATE ( 2021, 8, 12 ) ;
#51 = APPROVAL_ROLE ( '' ) ;
#52 = AXIS2_PLACEMENT_3D ( 'NONE', #67, #162, #85 ) ;
#53 = ADVANCED_FACE ( 'NONE', ( #25, #41 ), #97, .T. ) ;
#54 = FACE_OUTER_BOUND ( 'NONE', #125, .T. ) ;
#55 = EDGE_CURVE ( 'NONE', #166, #166, #194, .T. ) ;
#56 = DIRECTION ( 'NONE',  ( 4.275831445896958607E-31, 1.000000000000000000, 1.224646799147353207E-16 ) ) ;
#57 = CYLINDRICAL_SURFACE ( 'NONE', #128, 1.999999999999999112 ) ;
#58 = DATE_AND_TIME ( #171, #175 ) ;
#59 = CARTESIAN_POINT ( 'NONE',  ( 0.0000000000000000000, 0.0000000000000000000, 0.0000000000000000000 ) ) ;
#60 = ORIENTED_EDGE ( 'NONE', *, *, #55, .T. ) ;
#61 = PERSON_AND_ORGANIZATION_ROLE ( 'creator' ) ;
#62 = CC_DESIGN_APPROVAL ( #148, ( #131 ) ) ;
#63 = AXIS2_PLACEMENT_3D ( 'NONE', #26, #133, #187 ) ;
#64 = CARTESIAN_POINT ( 'NONE',  ( 7.681258945454893382E-14, 1.499759782661851039E-32, 22.00000000000000000 ) ) ;
#65 = CARTESIAN_POINT ( 'NONE',  ( 7.681258945454893382E-14, -2.694222958124176809E-15, 22.00000000000000000 ) ) ;
#66 = EDGE_CURVE ( 'NONE', #40, #40, #152, .T. ) ;
#67 = CARTESIAN_POINT ( 'NONE',  ( 7.681258945454893382E-14, -2.694222958124176809E-15, 22.00000000000000000 ) ) ;
#68 = DIRECTION ( 'NONE',  ( -3.491481338843133355E-15, 1.224646799147353207E-16, -1.000000000000000000 ) ) ;
#69 = DIRECTION ( 'NONE',  ( -4.275831445896958607E-31, -1.000000000000000000, -1.224646799147353207E-16 ) ) ;
#70 = APPROVAL_PERSON_ORGANIZATION ( #77, #102, #51 ) ;
#71 = APPROVAL ( #16, 'UNSPECIFIED' ) ;
#72 = APPLICATION_PROTOCOL_DEFINITION ( 'international standard', 'config_control_design', 1994, #20 ) ;
#73 = EDGE_CURVE ( 'NONE', #158, #158, #88, .T. ) ;
#74 = DATE_AND_TIME ( #151, #167 ) ;
#75 = PERSON ( 'UNSPECIFIED', 'UNSPECIFIED', 'UNSPECIFIED', ('UNSPECIFIED'), ('UNSPECIFIED'), ('UNSPECIFIED') ) ;
#76 = EDGE_LOOP ( 'NONE', ( #134 ) ) ;
#77 = PERSON_AND_ORGANIZATION ( #75, #150 ) ;
#78 = AXIS2_PLACEMENT_3D ( 'NONE', #12, #199, #159 ) ;
#79 = AXIS2_PLACEMENT_3D ( 'NONE', #64, #95, #82 ) ;
#80 = CC_DESIGN_SECURITY_CLASSIFICATION ( #3, ( #157 ) ) ;
#81 = VERTEX_POINT ( 'NONE', #145 ) ;
#82 = DIRECTION ( 'NONE',  ( -4.275831445896958607E-31, -1.000000000000000000, -1.224646799147353207E-16 ) ) ;
#83 = DIRECTION ( 'NONE',  ( -3.491481338843133355E-15, 1.224646799147353207E-16, -1.000000000000000000 ) ) ;
#84 = EDGE_LOOP ( 'NONE', ( #154 ) ) ;
#85 = DIRECTION ( 'NONE',  ( 0.0000000000000000000, 1.000000000000000000, 0.0000000000000000000 ) ) ;
#86 = PLANE ( 'NONE',  #6 ) ;
#87 = LOCAL_TIME ( 9, 40, 24.00000000000000000, #4 ) ;
#88 = CIRCLE ( 'NONE', #193, 1.999999999999994005 ) ;
#89 = ADVANCED_BREP_SHAPE_REPRESENTATION ( '372600', ( #144, #142, #13 ), #29 ) ;
#90 = DATE_TIME_ROLE ( 'classification_date' ) ;
#91 = CALENDAR_DATE ( 2021, 8, 12 ) ;
#92 = CC_DESIGN_APPROVAL ( #102, ( #157 ) ) ;
#93 = PERSON_AND_ORGANIZATION_ROLE ( 'design_owner' ) ;
#94 = CARTESIAN_POINT ( 'NONE',  ( 7.681258945454893382E-14, 1.999999999999994005, 22.00000000000000000 ) ) ;
#95 = DIRECTION ( 'NONE',  ( 3.491481338843133355E-15, -1.224646799147353207E-16, 1.000000000000000000 ) ) ;
#96 = ORIENTED_EDGE ( 'NONE', *, *, #143, .F. ) ;
#97 = CONICAL_SURFACE ( 'NONE', #130, 1.600000000000001421, 0.7853981633974512766 ) ;
#98 = PLANE ( 'NONE',  #106 ) ;
#99 = FACE_OUTER_BOUND ( 'NONE', #113, .T. ) ;
#100 = DIRECTION ( 'NONE',  ( 3.491481338843133355E-15, -1.224646799147353207E-16, 1.000000000000000000 ) ) ;
#101 = COORDINATED_UNIVERSAL_TIME_OFFSET ( 1, 0, .AHEAD. ) ;
#102 = APPROVAL ( #19, 'UNSPECIFIED' ) ;
#103 = PERSON_AND_ORGANIZATION_ROLE ( 'classification_officer' ) ;
#104 = APPROVAL_DATE_TIME ( #170, #102 ) ;
#105 = APPLICATION_CONTEXT ( 'configuration controlled 3d designs of mechanical parts and assemblies' ) ;
#106 = AXIS2_PLACEMENT_3D ( 'NONE', #198, #27, #56 ) ;
#107 = ORIENTED_EDGE ( 'NONE', *, *, #21, .F. ) ;
#108 = PERSON_AND_ORGANIZATION ( #75, #150 ) ;
#109 = DATE_AND_TIME ( #153, #141 ) ;
#110 = ADVANCED_FACE ( 'NONE', ( #99 ), #147, .T. ) ;
#111 = FACE_OUTER_BOUND ( 'NONE', #174, .T. ) ;
#112 = DIRECTION ( 'NONE',  ( -3.491481338843133355E-15, 1.224646799147353207E-16, -1.000000000000000000 ) ) ;
#113 = EDGE_LOOP ( 'NONE', ( #107 ) ) ;
#114 = DIRECTION ( 'NONE',  ( 4.275831445896958607E-31, 1.000000000000000000, 1.224646799147353207E-16 ) ) ;
#115 = CLOSED_SHELL ( 'NONE', ( #46, #156, #110 ) ) ;
#116 = FACE_OUTER_BOUND ( 'NONE', #76, .T. ) ;
#117 = VERTEX_POINT ( 'NONE', #47 ) ;
#118 = CIRCLE ( 'NONE', #52, 1.999999999999996669 ) ;
#119 = SHAPE_DEFINITION_REPRESENTATION ( #33, #89 ) ;
#120 = CC_DESIGN_PERSON_AND_ORGANIZATION_ASSIGNMENT ( #18, #192, ( #157 ) ) ;
#121 = DATE_TIME_ROLE ( 'creation_date' ) ;
#122 = CC_DESIGN_DATE_AND_TIME_ASSIGNMENT ( #109, #121, ( #131 ) ) ;
#123 = COORDINATED_UNIVERSAL_TIME_OFFSET ( 1, 0, .AHEAD. ) ;
#124 = APPROVAL_STATUS ( 'not_yet_approved' ) ;
#125 = EDGE_LOOP ( 'NONE', ( #181 ) ) ;
#126 = COORDINATED_UNIVERSAL_TIME_OFFSET ( 1, 0, .AHEAD. ) ;
#127 = SECURITY_CLASSIFICATION_LEVEL ( 'unclassified' ) ;
#128 = AXIS2_PLACEMENT_3D ( 'NONE', #135, #180, #43 ) ;
#129 = APPROVAL_ROLE ( '' ) ;
#130 = AXIS2_PLACEMENT_3D ( 'NONE', #160, #112, #45 ) ;
#131 = PRODUCT_DEFINITION ( 'UNKNOWN', '', #157, #182 ) ;
#132 = CYLINDRICAL_SURFACE ( 'NONE', #200, 1.999999999999995337 ) ;
#133 = DIRECTION ( 'NONE',  ( -3.491481338843133355E-15, 1.224646799147353207E-16, -1.000000000000000000 ) ) ;
#134 = ORIENTED_EDGE ( 'NONE', *, *, #55, .F. ) ;
#135 = CARTESIAN_POINT ( 'NONE',  ( 0.0000000000000000000, 0.0000000000000000000, 0.0000000000000000000 ) ) ;
#136 = CARTESIAN_POINT ( 'NONE',  ( -7.482609099231039023E-31, 2.624545971561859071E-32, -2.143104422752070295E-16 ) ) ;
#137 = CLOSED_SHELL ( 'NONE', ( #203, #183, #53, #190 ) ) ;
#138 =( LENGTH_UNIT ( ) NAMED_UNIT ( * ) SI_UNIT ( .MILLI., .METRE. ) );
#139 = PERSON_AND_ORGANIZATION ( #75, #150 ) ;
#140 = APPROVAL_DATE_TIME ( #74, #148 ) ;
#141 = LOCAL_TIME ( 9, 40, 24.00000000000000000, #32 ) ;
#142 = MANIFOLD_SOLID_BREP ( 'Corps-Déplacer/Copier1[2]', #115 ) ;
#143 = EDGE_CURVE ( 'NONE', #81, #81, #178, .T. ) ;
#144 = MANIFOLD_SOLID_BREP ( 'Corps-Déplacer/Copier1[1]', #137 ) ;
#145 = CARTESIAN_POINT ( 'NONE',  ( 2.080922877950507480E-13, 1.999999999999994005, 59.60000000000000142 ) ) ;
#146 = CARTESIAN_POINT ( 'NONE',  ( 0.0000000000000000000, 0.0000000000000000000, 0.0000000000000000000 ) ) ;
#147 = PLANE ( 'NONE',  #79 ) ;
#148 = APPROVAL ( #124, 'UNSPECIFIED' ) ;
#149 = CARTESIAN_POINT ( 'NONE',  ( 7.681258945454893382E-14, 1.499759782661851039E-32, 22.00000000000000000 ) ) ;
#150 = ORGANIZATION ( 'UNSPECIFIED', 'UNSPECIFIED', '' ) ;
#151 = CALENDAR_DATE ( 2021, 8, 12 ) ;
#152 = CIRCLE ( 'NONE', #39, 1.999999999999996669 ) ;
#153 = CALENDAR_DATE ( 2021, 8, 12 ) ;
#154 = ORIENTED_EDGE ( 'NONE', *, *, #66, .T. ) ;
#155 = DIRECTION ( 'NONE',  ( 0.0000000000000000000, 0.0000000000000000000, 1.000000000000000000 ) ) ;
#156 = ADVANCED_FACE ( 'NONE', ( #164, #54 ), #132, .T. ) ;
#157 = PRODUCT_DEFINITION_FORMATION_WITH_SPECIFIED_SOURCE ( 'ANY', '', #168, .NOT_KNOWN. ) ;
#158 = VERTEX_POINT ( 'NONE', #24 ) ;
#159 = DIRECTION ( 'NONE',  ( 0.0000000000000000000, 1.000000000000000000, 0.0000000000000000000 ) ) ;
#160 = CARTESIAN_POINT ( 'NONE',  ( 2.094888803305880013E-13, -7.347880794884118356E-15, 60.00000000000000000 ) ) ;
#161 = PRODUCT_RELATED_PRODUCT_CATEGORY ( 'detail', '', ( #168 ) ) ;
#162 = DIRECTION ( 'NONE',  ( -3.491481338843133355E-15, 1.224646799147353207E-16, -1.000000000000000000 ) ) ;
#163 = UNCERTAINTY_MEASURE_WITH_UNIT (LENGTH_MEASURE( 1.000000000000000082E-05 ), #138, 'distance_accuracy_value', 'NONE');
#164 = FACE_OUTER_BOUND ( 'NONE', #185, .T. ) ;
#165 = APPROVAL_PERSON_ORGANIZATION ( #201, #71, #48 ) ;
#166 = VERTEX_POINT ( 'NONE', #28 ) ;
#167 = LOCAL_TIME ( 9, 40, 24.00000000000000000, #126 ) ;
#168 = PRODUCT ( '372600', '372600', '', ( #5 ) ) ;
#169 = APPROVAL_DATE_TIME ( #58, #71 ) ;
#170 = DATE_AND_TIME ( #91, #87 ) ;
#171 = CALENDAR_DATE ( 2021, 8, 12 ) ;
#172 = EDGE_LOOP ( 'NONE', ( #191 ) ) ;
#173 = PERSON_AND_ORGANIZATION ( #75, #150 ) ;
#174 = EDGE_LOOP ( 'NONE', ( #11 ) ) ;
#175 = LOCAL_TIME ( 9, 40, 24.00000000000000000, #123 ) ;
#176 = AXIS2_PLACEMENT_3D ( 'NONE', #22, #36, #188 ) ;
#177 = LOCAL_TIME ( 9, 40, 24.00000000000000000, #101 ) ;
#178 = CIRCLE ( 'NONE', #78, 2.000000000000001332 ) ;
#179 = PLANE ( 'NONE',  #176 ) ;
#180 = DIRECTION ( 'NONE',  ( -3.491481338843133355E-15, 1.224646799147353207E-16, -1.000000000000000000 ) ) ;
#181 = ORIENTED_EDGE ( 'NONE', *, *, #21, .T. ) ;
#182 = DESIGN_CONTEXT ( 'detailed design', #20, 'design' ) ;
#183 = ADVANCED_FACE ( 'NONE', ( #10, #184 ), #57, .T. ) ;
#184 = FACE_OUTER_BOUND ( 'NONE', #172, .T. ) ;
#185 = EDGE_LOOP ( 'NONE', ( #34 ) ) ;
#186 = FACE_OUTER_BOUND ( 'NONE', #84, .T. ) ;
#187 = DIRECTION ( 'NONE',  ( 0.0000000000000000000, 1.000000000000000000, 0.0000000000000000000 ) ) ;
#188 = DIRECTION ( 'NONE',  ( -4.275831445896958607E-31, -1.000000000000000000, -1.224646799147353207E-16 ) ) ;
#189 = PERSON_AND_ORGANIZATION_ROLE ( 'creator' ) ;
#190 = ADVANCED_FACE ( 'NONE', ( #116 ), #98, .F. ) ;
#191 = ORIENTED_EDGE ( 'NONE', *, *, #143, .T. ) ;
#192 = PERSON_AND_ORGANIZATION_ROLE ( 'design_supplier' ) ;
#193 = AXIS2_PLACEMENT_3D ( 'NONE', #136, #68, #197 ) ;
#194 = CIRCLE ( 'NONE', #63, 1.600000000000001421 ) ;
#195 = DIRECTION ( 'NONE',  ( 0.0000000000000000000, 1.000000000000000000, 0.0000000000000000000 ) ) ;
#196 = CC_DESIGN_PERSON_AND_ORGANIZATION_ASSIGNMENT ( #108, #189, ( #131 ) ) ;
#197 = DIRECTION ( 'NONE',  ( 4.275831445896959482E-31, 1.000000000000000000, 1.224646799147353207E-16 ) ) ;
#198 = CARTESIAN_POINT ( 'NONE',  ( 2.094888803305880013E-13, 1.199807826129476233E-32, 60.00000000000000000 ) ) ;
#199 = DIRECTION ( 'NONE',  ( -3.491481338843133355E-15, 1.224646799147353207E-16, -1.000000000000000000 ) ) ;
#200 = AXIS2_PLACEMENT_3D ( 'NONE', #146, #9, #114 ) ;
#201 = PERSON_AND_ORGANIZATION ( #75, #150 ) ;
#202 = CC_DESIGN_PERSON_AND_ORGANIZATION_ASSIGNMENT ( #173, #61, ( #157 ) ) ;
#203 = ADVANCED_FACE ( 'NONE', ( #186 ), #86, .F. ) ;
ENDSEC;
END-ISO-10303-21;
