ISO-10303-21;
HEADER;
FILE_DESCRIPTION (( 'STEP AP203' ),
    '1' );
FILE_NAME ('372599.step',
    '2021-12-08T08:40:23',
    ( '' ),
    ( '' ),
    'SwSTEP 2.0',
    'SolidWorks 2019',
    '' );
FILE_SCHEMA (( 'CONFIG_CONTROL_DESIGN' ));
ENDSEC;

DATA;
#1 = APPROVAL_DATE_TIME ( #36, #173 ) ;
#2 = AXIS2_PLACEMENT_3D ( 'NONE', #113, #139, #176 ) ;
#3 = APPROVAL_STATUS ( 'not_yet_approved' ) ;
#4 = APPROVAL_ROLE ( '' ) ;
#5 = AXIS2_PLACEMENT_3D ( 'NONE', #112, #57, #138 ) ;
#6 = ORIENTED_EDGE ( 'NONE', *, *, #102, .F. ) ;
#7 = APPROVAL ( #152, 'UNSPECIFIED' ) ;
#8 = ORIENTED_EDGE ( 'NONE', *, *, #49, .F. ) ;
#9 = EDGE_CURVE ( 'NONE', #175, #175, #189, .T. ) ;
#10 = DIRECTION ( 'NONE',  ( 0.0000000000000000000, 1.000000000000000000, 0.0000000000000000000 ) ) ;
#11 = DIRECTION ( 'NONE',  ( -3.491481338843133355E-15, 1.224646799147353207E-16, -1.000000000000000000 ) ) ;
#12 = PRODUCT_RELATED_PRODUCT_CATEGORY ( 'detail', '', ( #39 ) ) ;
#13 = VERTEX_POINT ( 'NONE', #28 ) ;
#14 = CARTESIAN_POINT ( 'NONE',  ( 0.0000000000000000000, 0.0000000000000000000, 0.0000000000000000000 ) ) ;
#15 = DIRECTION ( 'NONE',  ( 3.491481338843133355E-15, -1.224646799147353207E-16, 1.000000000000000000 ) ) ;
#16 = APPROVAL_ROLE ( '' ) ;
#17 = AXIS2_PLACEMENT_3D ( 'NONE', #144, #201, #60 ) ;
#18 = LOCAL_TIME ( 9, 40, 23.00000000000000000, #187 ) ;
#19 = CALENDAR_DATE ( 2021, 8, 12 ) ;
#20 = MECHANICAL_CONTEXT ( 'NONE', #156, 'mechanical' ) ;
#21 = CC_DESIGN_PERSON_AND_ORGANIZATION_ASSIGNMENT ( #86, #34, ( #39 ) ) ;
#22 = EDGE_LOOP ( 'NONE', ( #6 ) ) ;
#23 = CC_DESIGN_DATE_AND_TIME_ASSIGNMENT ( #122, #134, ( #25 ) ) ;
#24 = AXIS2_PLACEMENT_3D ( 'NONE', #46, #182, #90 ) ;
#25 = SECURITY_CLASSIFICATION ( '', '', #35 ) ;
#26 = DIRECTION ( 'NONE',  ( -3.491481338843133355E-15, 1.224646799147353207E-16, -1.000000000000000000 ) ) ;
#27 = CARTESIAN_POINT ( 'NONE',  ( 1.069053792562853011E-31, 1.999999999999994005, 3.061891755426287241E-17 ) ) ;
#28 = CARTESIAN_POINT ( 'NONE',  ( 5.586370142149013368E-14, 1.999999999999994005, 16.00000000000000000 ) ) ;
#29 = APPROVAL ( #202, 'UNSPECIFIED' ) ;
#30 = CARTESIAN_POINT ( 'NONE',  ( 5.586370142149013368E-14, -1.959434878635765131E-15, 16.00000000000000000 ) ) ;
#31 = PERSON_AND_ORGANIZATION ( #75, #136 ) ;
#32 = DATE_AND_TIME ( #64, #85 ) ;
#33 = AXIS2_PLACEMENT_3D ( 'NONE', #14, #26, #128 ) ;
#34 = PERSON_AND_ORGANIZATION_ROLE ( 'design_owner' ) ;
#35 = SECURITY_CLASSIFICATION_LEVEL ( 'unclassified' ) ;
#36 = DATE_AND_TIME ( #101, #55 ) ;
#37 = EDGE_LOOP ( 'NONE', ( #169 ) ) ;
#38 = ORIENTED_EDGE ( 'NONE', *, *, #9, .T. ) ;
#39 = PRODUCT ( '372599', '372599', '', ( #20 ) ) ;
#40 = CARTESIAN_POINT ( 'NONE',  ( 2.094888803305880013E-13, -7.347880794884118356E-15, 60.00000000000000000 ) ) ;
#41 = CARTESIAN_POINT ( 'NONE',  ( 5.586370142149013368E-14, 1.499759782661851313E-32, 16.00000000000000000 ) ) ;
#42 = AXIS2_PLACEMENT_3D ( 'NONE', #78, #199, #184 ) ;
#43 = LOCAL_TIME ( 9, 40, 23.00000000000000000, #179 ) ;
#44 = DIRECTION ( 'NONE',  ( -3.491481338843133355E-15, 1.224646799147353207E-16, -1.000000000000000000 ) ) ;
#45 = FACE_OUTER_BOUND ( 'NONE', #194, .T. ) ;
#46 = CARTESIAN_POINT ( 'NONE',  ( -7.482609099231039023E-31, 2.624545971561859071E-32, -2.143104422752070295E-16 ) ) ;
#47 = CIRCLE ( 'NONE', #130, 1.999999999999996225 ) ;
#48 = PLANE ( 'NONE',  #42 ) ;
#49 = EDGE_CURVE ( 'NONE', #177, #177, #114, .T. ) ;
#50 = PERSON_AND_ORGANIZATION ( #75, #136 ) ;
#51 = CARTESIAN_POINT ( 'NONE',  ( 0.0000000000000000000, 0.0000000000000000000, 0.0000000000000000000 ) ) ;
#52 = COORDINATED_UNIVERSAL_TIME_OFFSET ( 1, 0, .AHEAD. ) ;
#53 = PERSON_AND_ORGANIZATION_ROLE ( 'design_supplier' ) ;
#54 = CC_DESIGN_PERSON_AND_ORGANIZATION_ASSIGNMENT ( #133, #167, ( #166 ) ) ;
#55 = LOCAL_TIME ( 9, 40, 23.00000000000000000, #117 ) ;
#56 = EDGE_LOOP ( 'NONE', ( #103 ) ) ;
#57 = DIRECTION ( 'NONE',  ( 3.491481338843133355E-15, -1.224646799147353207E-16, 1.000000000000000000 ) ) ;
#58 = FACE_OUTER_BOUND ( 'NONE', #154, .T. ) ;
#59 =( GEOMETRIC_REPRESENTATION_CONTEXT ( 3 ) GLOBAL_UNCERTAINTY_ASSIGNED_CONTEXT ( ( #149 ) ) GLOBAL_UNIT_ASSIGNED_CONTEXT ( ( #94, #84, #131 ) ) REPRESENTATION_CONTEXT ( 'NONE', 'WORKASPACE' ) );
#60 = DIRECTION ( 'NONE',  ( 0.0000000000000000000, 1.000000000000000000, 0.0000000000000000000 ) ) ;
#61 = FACE_OUTER_BOUND ( 'NONE', #56, .T. ) ;
#62 = FACE_OUTER_BOUND ( 'NONE', #89, .T. ) ;
#63 = AXIS2_PLACEMENT_3D ( 'NONE', #76, #15, #172 ) ;
#64 = CALENDAR_DATE ( 2021, 8, 12 ) ;
#65 = DATE_AND_TIME ( #120, #43 ) ;
#66 = CC_DESIGN_DATE_AND_TIME_ASSIGNMENT ( #65, #148, ( #188 ) ) ;
#67 = DATE_AND_TIME ( #19, #18 ) ;
#68 = APPROVAL_ROLE ( '' ) ;
#69 = ADVANCED_FACE ( 'NONE', ( #124 ), #155, .T. ) ;
#70 = APPROVAL_PERSON_ORGANIZATION ( #192, #173, #68 ) ;
#71 = EDGE_LOOP ( 'NONE', ( #87 ) ) ;
#72 = EDGE_LOOP ( 'NONE', ( #38 ) ) ;
#73 = AXIS2_PLACEMENT_3D ( 'NONE', #41, #80, #96 ) ;
#74 = DIRECTION ( 'NONE',  ( -3.491481338843133355E-15, 1.224646799147353207E-16, -1.000000000000000000 ) ) ;
#75 = PERSON ( 'UNSPECIFIED', 'UNSPECIFIED', 'UNSPECIFIED', ('UNSPECIFIED'), ('UNSPECIFIED'), ('UNSPECIFIED') ) ;
#76 = CARTESIAN_POINT ( 'NONE',  ( -3.741304549615519511E-31, 1.312272985780929536E-32, -1.071552211376035147E-16 ) ) ;
#77 = FACE_OUTER_BOUND ( 'NONE', #37, .T. ) ;
#78 = CARTESIAN_POINT ( 'NONE',  ( 2.094888803305880013E-13, 1.199807826129476233E-32, 60.00000000000000000 ) ) ;
#79 = MANIFOLD_SOLID_BREP ( 'Corps-Déplacer/Copier1[2]', #195 ) ;
#80 = DIRECTION ( 'NONE',  ( 3.491481338843133355E-15, -1.224646799147353207E-16, 1.000000000000000000 ) ) ;
#81 = CC_DESIGN_PERSON_AND_ORGANIZATION_ASSIGNMENT ( #164, #118, ( #25 ) ) ;
#82 = CC_DESIGN_APPROVAL ( #7, ( #188 ) ) ;
#83 = SHAPE_DEFINITION_REPRESENTATION ( #142, #165 ) ;
#84 =( NAMED_UNIT ( * ) PLANE_ANGLE_UNIT ( ) SI_UNIT ( $, .RADIAN. ) );
#85 = LOCAL_TIME ( 9, 40, 23.00000000000000000, #145 ) ;
#86 = PERSON_AND_ORGANIZATION ( #75, #136 ) ;
#87 = ORIENTED_EDGE ( 'NONE', *, *, #9, .F. ) ;
#88 = APPLICATION_CONTEXT ( 'configuration controlled 3d designs of mechanical parts and assemblies' ) ;
#89 = EDGE_LOOP ( 'NONE', ( #180 ) ) ;
#90 = DIRECTION ( 'NONE',  ( 4.275831445896959482E-31, 1.000000000000000000, 1.224646799147353207E-16 ) ) ;
#91 = EDGE_CURVE ( 'NONE', #174, #174, #141, .T. ) ;
#92 = CARTESIAN_POINT ( 'NONE',  ( 5.586370142149013368E-14, -1.959434878635765131E-15, 16.00000000000000000 ) ) ;
#93 = VERTEX_POINT ( 'NONE', #158 ) ;
#94 =( LENGTH_UNIT ( ) NAMED_UNIT ( * ) SI_UNIT ( .MILLI., .METRE. ) );
#95 = AXIS2_PLACEMENT_3D ( 'NONE', #40, #127, #159 ) ;
#96 = DIRECTION ( 'NONE',  ( -4.275831445896958607E-31, -1.000000000000000000, -1.224646799147353207E-16 ) ) ;
#97 = DIRECTION ( 'NONE',  ( 1.000000000000000000, 0.0000000000000000000, 0.0000000000000000000 ) ) ;
#98 = ADVANCED_FACE ( 'NONE', ( #77, #185 ), #170, .T. ) ;
#99 = APPROVAL_DATE_TIME ( #32, #29 ) ;
#100 = CIRCLE ( 'NONE', #17, 2.000000000000001332 ) ;
#101 = CALENDAR_DATE ( 2021, 8, 12 ) ;
#102 = EDGE_CURVE ( 'NONE', #13, #13, #47, .T. ) ;
#103 = ORIENTED_EDGE ( 'NONE', *, *, #91, .T. ) ;
#104 = ADVANCED_FACE ( 'NONE', ( #61 ), #160, .F. ) ;
#105 = ORIENTED_EDGE ( 'NONE', *, *, #135, .T. ) ;
#106 = EDGE_LOOP ( 'NONE', ( #105 ) ) ;
#107 = CC_DESIGN_PERSON_AND_ORGANIZATION_ASSIGNMENT ( #191, #53, ( #166 ) ) ;
#108 = AXIS2_PLACEMENT_3D ( 'NONE', #51, #119, #97 ) ;
#109 = CYLINDRICAL_SURFACE ( 'NONE', #33, 1.999999999999994893 ) ;
#110 = CARTESIAN_POINT ( 'NONE',  ( 5.586370142149013368E-14, 1.999999999999994005, 16.00000000000000000 ) ) ;
#111 = CC_DESIGN_SECURITY_CLASSIFICATION ( #25, ( #166 ) ) ;
#112 = CARTESIAN_POINT ( 'NONE',  ( 5.586370142149013368E-14, 1.499759782661851313E-32, 16.00000000000000000 ) ) ;
#113 = CARTESIAN_POINT ( 'NONE',  ( 2.094888803305880013E-13, -7.347880794884118356E-15, 60.00000000000000000 ) ) ;
#114 = CIRCLE ( 'NONE', #125, 1.999999999999996225 ) ;
#115 = DESIGN_CONTEXT ( 'detailed design', #88, 'design' ) ;
#116 = CARTESIAN_POINT ( 'NONE',  ( 2.094888803305880013E-13, 1.599999999999994094, 60.00000000000000000 ) ) ;
#117 = COORDINATED_UNIVERSAL_TIME_OFFSET ( 1, 0, .AHEAD. ) ;
#118 = PERSON_AND_ORGANIZATION_ROLE ( 'classification_officer' ) ;
#119 = DIRECTION ( 'NONE',  ( 0.0000000000000000000, 0.0000000000000000000, 1.000000000000000000 ) ) ;
#120 = CALENDAR_DATE ( 2021, 8, 12 ) ;
#121 = ADVANCED_FACE ( 'NONE', ( #186 ), #197, .F. ) ;
#122 = DATE_AND_TIME ( #190, #146 ) ;
#123 = ORIENTED_EDGE ( 'NONE', *, *, #49, .T. ) ;
#124 = FACE_OUTER_BOUND ( 'NONE', #22, .T. ) ;
#125 = AXIS2_PLACEMENT_3D ( 'NONE', #92, #74, #10 ) ;
#126 = FACE_OUTER_BOUND ( 'NONE', #106, .T. ) ;
#127 = DIRECTION ( 'NONE',  ( -3.491481338843133355E-15, 1.224646799147353207E-16, -1.000000000000000000 ) ) ;
#128 = DIRECTION ( 'NONE',  ( 4.275831445896958607E-31, 1.000000000000000000, 1.224646799147353207E-16 ) ) ;
#129 = CARTESIAN_POINT ( 'NONE',  ( 0.0000000000000000000, 0.0000000000000000000, 0.0000000000000000000 ) ) ;
#130 = AXIS2_PLACEMENT_3D ( 'NONE', #30, #11, #196 ) ;
#131 =( NAMED_UNIT ( * ) SI_UNIT ( $, .STERADIAN. ) SOLID_ANGLE_UNIT ( ) );
#132 = APPLICATION_PROTOCOL_DEFINITION ( 'international standard', 'config_control_design', 1994, #156 ) ;
#133 = PERSON_AND_ORGANIZATION ( #75, #136 ) ;
#134 = DATE_TIME_ROLE ( 'classification_date' ) ;
#135 = EDGE_CURVE ( 'NONE', #93, #93, #100, .T. ) ;
#136 = ORGANIZATION ( 'UNSPECIFIED', 'UNSPECIFIED', '' ) ;
#137 = CC_DESIGN_APPROVAL ( #29, ( #25 ) ) ;
#138 = DIRECTION ( 'NONE',  ( -4.275831445896958607E-31, -1.000000000000000000, -1.224646799147353207E-16 ) ) ;
#139 = DIRECTION ( 'NONE',  ( -3.491481338843133355E-15, 1.224646799147353207E-16, -1.000000000000000000 ) ) ;
#140 = CC_DESIGN_PERSON_AND_ORGANIZATION_ASSIGNMENT ( #50, #178, ( #188 ) ) ;
#141 = CIRCLE ( 'NONE', #24, 1.999999999999994005 ) ;
#142 = PRODUCT_DEFINITION_SHAPE ( 'NONE', 'NONE',  #188 ) ;
#143 = DIRECTION ( 'NONE',  ( 4.275831445896957731E-31, 1.000000000000000000, 1.224646799147353207E-16 ) ) ;
#144 = CARTESIAN_POINT ( 'NONE',  ( 2.080922877950507480E-13, -7.298894922918224927E-15, 59.60000000000000142 ) ) ;
#145 = COORDINATED_UNIVERSAL_TIME_OFFSET ( 1, 0, .AHEAD. ) ;
#146 = LOCAL_TIME ( 9, 40, 23.00000000000000000, #52 ) ;
#147 = ADVANCED_FACE ( 'NONE', ( #45, #62 ), #109, .T. ) ;
#148 = DATE_TIME_ROLE ( 'creation_date' ) ;
#149 = UNCERTAINTY_MEASURE_WITH_UNIT (LENGTH_MEASURE( 1.000000000000000082E-05 ), #94, 'distance_accuracy_value', 'NONE');
#150 = APPROVAL_DATE_TIME ( #67, #7 ) ;
#151 = MANIFOLD_SOLID_BREP ( 'Corps-Déplacer/Copier1[1]', #181 ) ;
#152 = APPROVAL_STATUS ( 'not_yet_approved' ) ;
#153 = EDGE_LOOP ( 'NONE', ( #123 ) ) ;
#154 = EDGE_LOOP ( 'NONE', ( #8 ) ) ;
#155 = PLANE ( 'NONE',  #5 ) ;
#156 = APPLICATION_CONTEXT ( 'configuration controlled 3d designs of mechanical parts and assemblies' ) ;
#157 = FACE_OUTER_BOUND ( 'NONE', #71, .T. ) ;
#158 = CARTESIAN_POINT ( 'NONE',  ( 2.080922877950507480E-13, 1.999999999999994005, 59.60000000000000142 ) ) ;
#159 = DIRECTION ( 'NONE',  ( 0.0000000000000000000, 1.000000000000000000, 0.0000000000000000000 ) ) ;
#160 = PLANE ( 'NONE',  #63 ) ;
#161 = ADVANCED_FACE ( 'NONE', ( #157 ), #48, .F. ) ;
#162 = PERSON_AND_ORGANIZATION ( #75, #136 ) ;
#163 = AXIS2_PLACEMENT_3D ( 'NONE', #129, #44, #143 ) ;
#164 = PERSON_AND_ORGANIZATION ( #75, #136 ) ;
#165 = ADVANCED_BREP_SHAPE_REPRESENTATION ( '372599', ( #151, #79, #108 ), #59 ) ;
#166 = PRODUCT_DEFINITION_FORMATION_WITH_SPECIFIED_SOURCE ( 'ANY', '', #39, .NOT_KNOWN. ) ;
#167 = PERSON_AND_ORGANIZATION_ROLE ( 'creator' ) ;
#168 = ORIENTED_EDGE ( 'NONE', *, *, #91, .F. ) ;
#169 = ORIENTED_EDGE ( 'NONE', *, *, #135, .F. ) ;
#170 = CONICAL_SURFACE ( 'NONE', #2, 1.600000000000001421, 0.7853981633974512766 ) ;
#171 = CC_DESIGN_APPROVAL ( #173, ( #166 ) ) ;
#172 = DIRECTION ( 'NONE',  ( -4.275831445896958607E-31, -1.000000000000000000, -1.224646799147353207E-16 ) ) ;
#173 = APPROVAL ( #3, 'UNSPECIFIED' ) ;
#174 = VERTEX_POINT ( 'NONE', #27 ) ;
#175 = VERTEX_POINT ( 'NONE', #116 ) ;
#176 = DIRECTION ( 'NONE',  ( 0.0000000000000000000, 1.000000000000000000, 0.0000000000000000000 ) ) ;
#177 = VERTEX_POINT ( 'NONE', #110 ) ;
#178 = PERSON_AND_ORGANIZATION_ROLE ( 'creator' ) ;
#179 = COORDINATED_UNIVERSAL_TIME_OFFSET ( 1, 0, .AHEAD. ) ;
#180 = ORIENTED_EDGE ( 'NONE', *, *, #102, .T. ) ;
#181 = CLOSED_SHELL ( 'NONE', ( #121, #198, #98, #161 ) ) ;
#182 = DIRECTION ( 'NONE',  ( -3.491481338843133355E-15, 1.224646799147353207E-16, -1.000000000000000000 ) ) ;
#183 = CYLINDRICAL_SURFACE ( 'NONE', #163, 1.999999999999998668 ) ;
#184 = DIRECTION ( 'NONE',  ( 4.275831445896958607E-31, 1.000000000000000000, 1.224646799147353207E-16 ) ) ;
#185 = FACE_BOUND ( 'NONE', #72, .T. ) ;
#186 = FACE_OUTER_BOUND ( 'NONE', #153, .T. ) ;
#187 = COORDINATED_UNIVERSAL_TIME_OFFSET ( 1, 0, .AHEAD. ) ;
#188 = PRODUCT_DEFINITION ( 'UNKNOWN', '', #166, #115 ) ;
#189 = CIRCLE ( 'NONE', #95, 1.600000000000001421 ) ;
#190 = CALENDAR_DATE ( 2021, 8, 12 ) ;
#191 = PERSON_AND_ORGANIZATION ( #75, #136 ) ;
#192 = PERSON_AND_ORGANIZATION ( #75, #136 ) ;
#193 = APPROVAL_PERSON_ORGANIZATION ( #162, #7, #4 ) ;
#194 = EDGE_LOOP ( 'NONE', ( #168 ) ) ;
#195 = CLOSED_SHELL ( 'NONE', ( #104, #147, #69 ) ) ;
#196 = DIRECTION ( 'NONE',  ( 0.0000000000000000000, 1.000000000000000000, 0.0000000000000000000 ) ) ;
#197 = PLANE ( 'NONE',  #73 ) ;
#198 = ADVANCED_FACE ( 'NONE', ( #58, #126 ), #183, .T. ) ;
#199 = DIRECTION ( 'NONE',  ( -3.491481338843133355E-15, 1.224646799147353207E-16, -1.000000000000000000 ) ) ;
#200 = APPROVAL_PERSON_ORGANIZATION ( #31, #29, #16 ) ;
#201 = DIRECTION ( 'NONE',  ( -3.491481338843133355E-15, 1.224646799147353207E-16, -1.000000000000000000 ) ) ;
#202 = APPROVAL_STATUS ( 'not_yet_approved' ) ;
#203 = APPLICATION_PROTOCOL_DEFINITION ( 'international standard', 'config_control_design', 1994, #88 ) ;
ENDSEC;
END-ISO-10303-21;
