ISO-10303-21;
HEADER;
FILE_DESCRIPTION (( 'STEP AP203' ),
    '1' );
FILE_NAME ('372598.step',
    '2021-12-08T08:40:22',
    ( '' ),
    ( '' ),
    'SwSTEP 2.0',
    'SolidWorks 2019',
    '' );
FILE_SCHEMA (( 'CONFIG_CONTROL_DESIGN' ));
ENDSEC;

DATA;
#1 = PERSON_AND_ORGANIZATION_ROLE ( 'design_owner' ) ;
#2 = VERTEX_POINT ( 'NONE', #112 ) ;
#3 = AXIS2_PLACEMENT_3D ( 'NONE', #156, #40, #24 ) ;
#4 = ADVANCED_FACE ( 'NONE', ( #63, #18 ), #184, .T. ) ;
#5 = COORDINATED_UNIVERSAL_TIME_OFFSET ( 1, 0, .AHEAD. ) ;
#6 = MANIFOLD_SOLID_BREP ( 'Corps-Déplacer/Copier1[1]', #160 ) ;
#7 = CARTESIAN_POINT ( 'NONE',  ( 4.189777606611760026E-14, 1.999999999999994005, 12.00000000000000000 ) ) ;
#8 = AXIS2_PLACEMENT_3D ( 'NONE', #62, #45, #96 ) ;
#9 = APPROVAL_DATE_TIME ( #102, #190 ) ;
#10 = EDGE_CURVE ( 'NONE', #56, #56, #133, .T. ) ;
#11 = COORDINATED_UNIVERSAL_TIME_OFFSET ( 1, 0, .AHEAD. ) ;
#12 = DIRECTION ( 'NONE',  ( -3.491481338843133355E-15, 1.224646799147353207E-16, -1.000000000000000000 ) ) ;
#13 = EDGE_LOOP ( 'NONE', ( #90 ) ) ;
#14 = EDGE_LOOP ( 'NONE', ( #149 ) ) ;
#15 = ORIENTED_EDGE ( 'NONE', *, *, #200, .F. ) ;
#16 = APPROVAL ( #68, 'UNSPECIFIED' ) ;
#17 = LOCAL_TIME ( 9, 40, 22.00000000000000000, #11 ) ;
#18 = FACE_BOUND ( 'NONE', #195, .T. ) ;
#19 = CARTESIAN_POINT ( 'NONE',  ( 0.0000000000000000000, 0.0000000000000000000, 0.0000000000000000000 ) ) ;
#20 = DIRECTION ( 'NONE',  ( 4.275831445896958607E-31, 1.000000000000000000, 1.224646799147353207E-16 ) ) ;
#21 = APPROVAL_ROLE ( '' ) ;
#22 = CIRCLE ( 'NONE', #93, 2.000000000000001332 ) ;
#23 =( NAMED_UNIT ( * ) SI_UNIT ( $, .STERADIAN. ) SOLID_ANGLE_UNIT ( ) );
#24 = DIRECTION ( 'NONE',  ( 0.0000000000000000000, 1.000000000000000000, 0.0000000000000000000 ) ) ;
#25 = COORDINATED_UNIVERSAL_TIME_OFFSET ( 1, 0, .AHEAD. ) ;
#26 = DIRECTION ( 'NONE',  ( -3.491481338843133355E-15, 1.224646799147353207E-16, -1.000000000000000000 ) ) ;
#27 = DATE_TIME_ROLE ( 'classification_date' ) ;
#28 = DIRECTION ( 'NONE',  ( -4.275831445896958607E-31, -1.000000000000000000, -1.224646799147353207E-16 ) ) ;
#29 = CC_DESIGN_SECURITY_CLASSIFICATION ( #72, ( #140 ) ) ;
#30 = ORIENTED_EDGE ( 'NONE', *, *, #147, .F. ) ;
#31 = PRODUCT_DEFINITION_SHAPE ( 'NONE', 'NONE',  #125 ) ;
#32 = FACE_OUTER_BOUND ( 'NONE', #181, .T. ) ;
#33 = APPROVAL_PERSON_ORGANIZATION ( #106, #131, #182 ) ;
#34 = CC_DESIGN_DATE_AND_TIME_ASSIGNMENT ( #53, #54, ( #125 ) ) ;
#35 = CARTESIAN_POINT ( 'NONE',  ( 2.094888803305880013E-13, 1.199807826129476233E-32, 60.00000000000000000 ) ) ;
#36 = VERTEX_POINT ( 'NONE', #38 ) ;
#37 = APPROVAL_ROLE ( '' ) ;
#38 = CARTESIAN_POINT ( 'NONE',  ( 2.080922877950507480E-13, 1.999999999999994005, 59.60000000000000142 ) ) ;
#39 = CIRCLE ( 'NONE', #3, 1.999999999999995337 ) ;
#40 = DIRECTION ( 'NONE',  ( -3.491481338843133355E-15, 1.224646799147353207E-16, -1.000000000000000000 ) ) ;
#41 = ADVANCED_FACE ( 'NONE', ( #75 ), #80, .F. ) ;
#42 = PERSON ( 'UNSPECIFIED', 'UNSPECIFIED', 'UNSPECIFIED', ('UNSPECIFIED'), ('UNSPECIFIED'), ('UNSPECIFIED') ) ;
#43 = CIRCLE ( 'NONE', #180, 1.999999999999994005 ) ;
#44 = CARTESIAN_POINT ( 'NONE',  ( 4.189777606611760026E-14, 1.499759782661852408E-32, 12.00000000000000000 ) ) ;
#45 = DIRECTION ( 'NONE',  ( 3.491481338843133355E-15, -1.224646799147353207E-16, 1.000000000000000000 ) ) ;
#46 = CALENDAR_DATE ( 2021, 8, 12 ) ;
#47 = PLANE ( 'NONE',  #48 ) ;
#48 = AXIS2_PLACEMENT_3D ( 'NONE', #35, #124, #137 ) ;
#49 = DIRECTION ( 'NONE',  ( 3.491481338843133355E-15, -1.224646799147353207E-16, 1.000000000000000000 ) ) ;
#50 = CIRCLE ( 'NONE', #171, 1.999999999999995337 ) ;
#51 = CC_DESIGN_PERSON_AND_ORGANIZATION_ASSIGNMENT ( #194, #91, ( #140 ) ) ;
#52 = DIRECTION ( 'NONE',  ( 4.275831445896959482E-31, 1.000000000000000000, 1.224646799147353207E-16 ) ) ;
#53 = DATE_AND_TIME ( #191, #145 ) ;
#54 = DATE_TIME_ROLE ( 'creation_date' ) ;
#55 = AXIS2_PLACEMENT_3D ( 'NONE', #114, #142, #81 ) ;
#56 = VERTEX_POINT ( 'NONE', #143 ) ;
#57 = PERSON_AND_ORGANIZATION ( #42, #104 ) ;
#58 = AXIS2_PLACEMENT_3D ( 'NONE', #44, #107, #28 ) ;
#59 = DIRECTION ( 'NONE',  ( 0.0000000000000000000, 1.000000000000000000, 0.0000000000000000000 ) ) ;
#60 = AXIS2_PLACEMENT_3D ( 'NONE', #139, #12, #59 ) ;
#61 = LOCAL_TIME ( 9, 40, 22.00000000000000000, #25 ) ;
#62 = CARTESIAN_POINT ( 'NONE',  ( 4.189777606611760026E-14, 1.499759782661852408E-32, 12.00000000000000000 ) ) ;
#63 = FACE_OUTER_BOUND ( 'NONE', #109, .T. ) ;
#64 = DIRECTION ( 'NONE',  ( -3.491481338843133355E-15, 1.224646799147353207E-16, -1.000000000000000000 ) ) ;
#65 = UNCERTAINTY_MEASURE_WITH_UNIT (LENGTH_MEASURE( 1.000000000000000082E-05 ), #130, 'distance_accuracy_value', 'NONE');
#66 = ADVANCED_FACE ( 'NONE', ( #32 ), #67, .F. ) ;
#67 = PLANE ( 'NONE',  #167 ) ;
#68 = APPROVAL_STATUS ( 'not_yet_approved' ) ;
#69 = PERSON_AND_ORGANIZATION ( #42, #104 ) ;
#70 = AXIS2_PLACEMENT_3D ( 'NONE', #201, #170, #121 ) ;
#71 = APPROVAL_STATUS ( 'not_yet_approved' ) ;
#72 = SECURITY_CLASSIFICATION ( '', '', #164 ) ;
#73 = CC_DESIGN_DATE_AND_TIME_ASSIGNMENT ( #88, #27, ( #72 ) ) ;
#74 = PERSON_AND_ORGANIZATION_ROLE ( 'creator' ) ;
#75 = FACE_OUTER_BOUND ( 'NONE', #14, .T. ) ;
#76 = MANIFOLD_SOLID_BREP ( 'Corps-Déplacer/Copier1[2]', #128 ) ;
#77 = CARTESIAN_POINT ( 'NONE',  ( -3.741304549615519511E-31, 1.312272985780929536E-32, -1.071552211376035147E-16 ) ) ;
#78 = EDGE_LOOP ( 'NONE', ( #150 ) ) ;
#79 = EDGE_LOOP ( 'NONE', ( #92 ) ) ;
#80 = PLANE ( 'NONE',  #8 ) ;
#81 = DIRECTION ( 'NONE',  ( 1.000000000000000000, 0.0000000000000000000, 0.0000000000000000000 ) ) ;
#82 = DIRECTION ( 'NONE',  ( -3.491481338843133355E-15, 1.224646799147353207E-16, -1.000000000000000000 ) ) ;
#83 =( NAMED_UNIT ( * ) PLANE_ANGLE_UNIT ( ) SI_UNIT ( $, .RADIAN. ) );
#84 = APPROVAL_PERSON_ORGANIZATION ( #87, #16, #21 ) ;
#85 = PRODUCT_RELATED_PRODUCT_CATEGORY ( 'detail', '', ( #120 ) ) ;
#86 = APPLICATION_PROTOCOL_DEFINITION ( 'international standard', 'config_control_design', 1994, #161 ) ;
#87 = PERSON_AND_ORGANIZATION ( #42, #104 ) ;
#88 = DATE_AND_TIME ( #179, #17 ) ;
#89 = DATE_AND_TIME ( #46, #61 ) ;
#90 = ORIENTED_EDGE ( 'NONE', *, *, #10, .F. ) ;
#91 = PERSON_AND_ORGANIZATION_ROLE ( 'design_supplier' ) ;
#92 = ORIENTED_EDGE ( 'NONE', *, *, #162, .T. ) ;
#93 = AXIS2_PLACEMENT_3D ( 'NONE', #141, #110, #198 ) ;
#94 = CC_DESIGN_APPROVAL ( #16, ( #125 ) ) ;
#95 = ORIENTED_EDGE ( 'NONE', *, *, #157, .F. ) ;
#96 = DIRECTION ( 'NONE',  ( -4.275831445896958607E-31, -1.000000000000000000, -1.224646799147353207E-16 ) ) ;
#97 = DIRECTION ( 'NONE',  ( 0.0000000000000000000, 1.000000000000000000, 0.0000000000000000000 ) ) ;
#98 = COORDINATED_UNIVERSAL_TIME_OFFSET ( 1, 0, .AHEAD. ) ;
#99 = COORDINATED_UNIVERSAL_TIME_OFFSET ( 1, 0, .AHEAD. ) ;
#100 = MECHANICAL_CONTEXT ( 'NONE', #161, 'mechanical' ) ;
#101 = FACE_OUTER_BOUND ( 'NONE', #165, .T. ) ;
#102 = DATE_AND_TIME ( #103, #119 ) ;
#103 = CALENDAR_DATE ( 2021, 8, 12 ) ;
#104 = ORGANIZATION ( 'UNSPECIFIED', 'UNSPECIFIED', '' ) ;
#105 = CARTESIAN_POINT ( 'NONE',  ( 0.0000000000000000000, 0.0000000000000000000, 0.0000000000000000000 ) ) ;
#106 = PERSON_AND_ORGANIZATION ( #42, #104 ) ;
#107 = DIRECTION ( 'NONE',  ( 3.491481338843133355E-15, -1.224646799147353207E-16, 1.000000000000000000 ) ) ;
#108 = FACE_OUTER_BOUND ( 'NONE', #78, .T. ) ;
#109 = EDGE_LOOP ( 'NONE', ( #95 ) ) ;
#110 = DIRECTION ( 'NONE',  ( -3.491481338843133355E-15, 1.224646799147353207E-16, -1.000000000000000000 ) ) ;
#111 = ADVANCED_FACE ( 'NONE', ( #136 ), #47, .F. ) ;
#112 = CARTESIAN_POINT ( 'NONE',  ( 1.069053792562853011E-31, 1.999999999999994005, 3.061891755426287241E-17 ) ) ;
#113 = PERSON_AND_ORGANIZATION ( #42, #104 ) ;
#114 = CARTESIAN_POINT ( 'NONE',  ( 0.0000000000000000000, 0.0000000000000000000, 0.0000000000000000000 ) ) ;
#115 = ADVANCED_FACE ( 'NONE', ( #108 ), #134, .T. ) ;
#116 = VERTEX_POINT ( 'NONE', #176 ) ;
#117 = APPLICATION_PROTOCOL_DEFINITION ( 'international standard', 'config_control_design', 1994, #173 ) ;
#118 = CYLINDRICAL_SURFACE ( 'NONE', #187, 1.999999999999994893 ) ;
#119 = LOCAL_TIME ( 9, 40, 22.00000000000000000, #99 ) ;
#120 = PRODUCT ( '372598', '372598', '', ( #100 ) ) ;
#121 = DIRECTION ( 'NONE',  ( 0.0000000000000000000, 1.000000000000000000, 0.0000000000000000000 ) ) ;
#122 = ORIENTED_EDGE ( 'NONE', *, *, #10, .T. ) ;
#123 = ORIENTED_EDGE ( 'NONE', *, *, #147, .T. ) ;
#124 = DIRECTION ( 'NONE',  ( -3.491481338843133355E-15, 1.224646799147353207E-16, -1.000000000000000000 ) ) ;
#125 = PRODUCT_DEFINITION ( 'UNKNOWN', '', #140, #152 ) ;
#126 = CALENDAR_DATE ( 2021, 8, 12 ) ;
#127 = PERSON_AND_ORGANIZATION_ROLE ( 'creator' ) ;
#128 = CLOSED_SHELL ( 'NONE', ( #66, #172, #115 ) ) ;
#129 = VERTEX_POINT ( 'NONE', #7 ) ;
#130 =( LENGTH_UNIT ( ) NAMED_UNIT ( * ) SI_UNIT ( .MILLI., .METRE. ) );
#131 = APPROVAL ( #135, 'UNSPECIFIED' ) ;
#132 = CC_DESIGN_PERSON_AND_ORGANIZATION_ASSIGNMENT ( #158, #74, ( #140 ) ) ;
#133 = CIRCLE ( 'NONE', #60, 1.600000000000001421 ) ;
#134 = PLANE ( 'NONE',  #58 ) ;
#135 = APPROVAL_STATUS ( 'not_yet_approved' ) ;
#136 = FACE_OUTER_BOUND ( 'NONE', #13, .T. ) ;
#137 = DIRECTION ( 'NONE',  ( 4.275831445896958607E-31, 1.000000000000000000, 1.224646799147353207E-16 ) ) ;
#138 = APPROVAL_PERSON_ORGANIZATION ( #113, #190, #37 ) ;
#139 = CARTESIAN_POINT ( 'NONE',  ( 2.094888803305880013E-13, -7.347880794884118356E-15, 60.00000000000000000 ) ) ;
#140 = PRODUCT_DEFINITION_FORMATION_WITH_SPECIFIED_SOURCE ( 'ANY', '', #120, .NOT_KNOWN. ) ;
#141 = CARTESIAN_POINT ( 'NONE',  ( 2.080922877950507480E-13, -7.298894922918224927E-15, 59.60000000000000142 ) ) ;
#142 = DIRECTION ( 'NONE',  ( 0.0000000000000000000, 0.0000000000000000000, 1.000000000000000000 ) ) ;
#143 = CARTESIAN_POINT ( 'NONE',  ( 2.094888803305880013E-13, 1.599999999999994094, 60.00000000000000000 ) ) ;
#144 = PERSON_AND_ORGANIZATION ( #42, #104 ) ;
#145 = LOCAL_TIME ( 9, 40, 22.00000000000000000, #5 ) ;
#146 = SHAPE_DEFINITION_REPRESENTATION ( #31, #154 ) ;
#147 = EDGE_CURVE ( 'NONE', #2, #2, #43, .T. ) ;
#148 = EDGE_LOOP ( 'NONE', ( #30 ) ) ;
#149 = ORIENTED_EDGE ( 'NONE', *, *, #200, .T. ) ;
#150 = ORIENTED_EDGE ( 'NONE', *, *, #162, .F. ) ;
#151 = DIRECTION ( 'NONE',  ( -4.275831445896958607E-31, -1.000000000000000000, -1.224646799147353207E-16 ) ) ;
#152 = DESIGN_CONTEXT ( 'detailed design', #173, 'design' ) ;
#153 = FACE_OUTER_BOUND ( 'NONE', #79, .T. ) ;
#154 = ADVANCED_BREP_SHAPE_REPRESENTATION ( '372598', ( #6, #76, #55 ), #202 ) ;
#155 = APPROVAL_DATE_TIME ( #189, #16 ) ;
#156 = CARTESIAN_POINT ( 'NONE',  ( 4.189777606611760026E-14, -1.469576158976823947E-15, 12.00000000000000000 ) ) ;
#157 = EDGE_CURVE ( 'NONE', #36, #36, #22, .T. ) ;
#158 = PERSON_AND_ORGANIZATION ( #42, #104 ) ;
#159 = PERSON_AND_ORGANIZATION_ROLE ( 'classification_officer' ) ;
#160 = CLOSED_SHELL ( 'NONE', ( #41, #196, #4, #111 ) ) ;
#161 = APPLICATION_CONTEXT ( 'configuration controlled 3d designs of mechanical parts and assemblies' ) ;
#162 = EDGE_CURVE ( 'NONE', #116, #116, #50, .T. ) ;
#163 = FACE_OUTER_BOUND ( 'NONE', #148, .T. ) ;
#164 = SECURITY_CLASSIFICATION_LEVEL ( 'unclassified' ) ;
#165 = EDGE_LOOP ( 'NONE', ( #15 ) ) ;
#166 = APPROVAL_DATE_TIME ( #89, #131 ) ;
#167 = AXIS2_PLACEMENT_3D ( 'NONE', #77, #49, #151 ) ;
#168 = CARTESIAN_POINT ( 'NONE',  ( -7.482609099231039023E-31, 2.624545971561859071E-32, -2.143104422752070295E-16 ) ) ;
#169 = CC_DESIGN_PERSON_AND_ORGANIZATION_ASSIGNMENT ( #57, #1, ( #120 ) ) ;
#170 = DIRECTION ( 'NONE',  ( -3.491481338843133355E-15, 1.224646799147353207E-16, -1.000000000000000000 ) ) ;
#171 = AXIS2_PLACEMENT_3D ( 'NONE', #174, #64, #97 ) ;
#172 = ADVANCED_FACE ( 'NONE', ( #163, #153 ), #118, .T. ) ;
#173 = APPLICATION_CONTEXT ( 'configuration controlled 3d designs of mechanical parts and assemblies' ) ;
#174 = CARTESIAN_POINT ( 'NONE',  ( 4.189777606611760026E-14, -1.469576158976823947E-15, 12.00000000000000000 ) ) ;
#175 = FACE_OUTER_BOUND ( 'NONE', #186, .T. ) ;
#176 = CARTESIAN_POINT ( 'NONE',  ( 4.189777606611760026E-14, 1.999999999999994005, 12.00000000000000000 ) ) ;
#177 = AXIS2_PLACEMENT_3D ( 'NONE', #19, #82, #178 ) ;
#178 = DIRECTION ( 'NONE',  ( 4.275831445896957731E-31, 1.000000000000000000, 1.224646799147353207E-16 ) ) ;
#179 = CALENDAR_DATE ( 2021, 8, 12 ) ;
#180 = AXIS2_PLACEMENT_3D ( 'NONE', #168, #188, #52 ) ;
#181 = EDGE_LOOP ( 'NONE', ( #123 ) ) ;
#182 = APPROVAL_ROLE ( '' ) ;
#183 = CC_DESIGN_PERSON_AND_ORGANIZATION_ASSIGNMENT ( #69, #127, ( #125 ) ) ;
#184 = CONICAL_SURFACE ( 'NONE', #70, 1.600000000000001421, 0.7853981633974512766 ) ;
#185 = CC_DESIGN_APPROVAL ( #131, ( #72 ) ) ;
#186 = EDGE_LOOP ( 'NONE', ( #197 ) ) ;
#187 = AXIS2_PLACEMENT_3D ( 'NONE', #105, #26, #20 ) ;
#188 = DIRECTION ( 'NONE',  ( -3.491481338843133355E-15, 1.224646799147353207E-16, -1.000000000000000000 ) ) ;
#189 = DATE_AND_TIME ( #126, #199 ) ;
#190 = APPROVAL ( #71, 'UNSPECIFIED' ) ;
#191 = CALENDAR_DATE ( 2021, 8, 12 ) ;
#192 = CC_DESIGN_APPROVAL ( #190, ( #140 ) ) ;
#193 = CYLINDRICAL_SURFACE ( 'NONE', #177, 1.999999999999998224 ) ;
#194 = PERSON_AND_ORGANIZATION ( #42, #104 ) ;
#195 = EDGE_LOOP ( 'NONE', ( #122 ) ) ;
#196 = ADVANCED_FACE ( 'NONE', ( #101, #175 ), #193, .T. ) ;
#197 = ORIENTED_EDGE ( 'NONE', *, *, #157, .T. ) ;
#198 = DIRECTION ( 'NONE',  ( 0.0000000000000000000, 1.000000000000000000, 0.0000000000000000000 ) ) ;
#199 = LOCAL_TIME ( 9, 40, 22.00000000000000000, #98 ) ;
#200 = EDGE_CURVE ( 'NONE', #129, #129, #39, .T. ) ;
#201 = CARTESIAN_POINT ( 'NONE',  ( 2.094888803305880013E-13, -7.347880794884118356E-15, 60.00000000000000000 ) ) ;
#202 =( GEOMETRIC_REPRESENTATION_CONTEXT ( 3 ) GLOBAL_UNCERTAINTY_ASSIGNED_CONTEXT ( ( #65 ) ) GLOBAL_UNIT_ASSIGNED_CONTEXT ( ( #130, #83, #23 ) ) REPRESENTATION_CONTEXT ( 'NONE', 'WORKASPACE' ) );
#203 = CC_DESIGN_PERSON_AND_ORGANIZATION_ASSIGNMENT ( #144, #159, ( #72 ) ) ;
ENDSEC;
END-ISO-10303-21;
