ISO-10303-21;
HEADER;
FILE_DESCRIPTION (( 'STEP AP203' ),
    '1' );
FILE_NAME ('372597.step',
    '2021-12-08T08:40:22',
    ( '' ),
    ( '' ),
    'SwSTEP 2.0',
    'SolidWorks 2019',
    '' );
FILE_SCHEMA (( 'CONFIG_CONTROL_DESIGN' ));
ENDSEC;

DATA;
#1 = AXIS2_PLACEMENT_3D ( 'NONE', #6, #125, #174 ) ;
#2 = LOCAL_TIME ( 9, 40, 22.00000000000000000, #33 ) ;
#3 = CYLINDRICAL_SURFACE ( 'NONE', #56, 1.999999999999997335 ) ;
#4 = PLANE ( 'NONE',  #1 ) ;
#5 = ORIENTED_EDGE ( 'NONE', *, *, #70, .F. ) ;
#6 = CARTESIAN_POINT ( 'NONE',  ( 4.189777606611760026E-14, 1.499759782661852408E-32, 12.00000000000000000 ) ) ;
#7 = AXIS2_PLACEMENT_3D ( 'NONE', #185, #122, #111 ) ;
#8 = CALENDAR_DATE ( 2021, 8, 12 ) ;
#9 = DIRECTION ( 'NONE',  ( 0.0000000000000000000, 1.000000000000000000, 0.0000000000000000000 ) ) ;
#10 = VERTEX_POINT ( 'NONE', #83 ) ;
#11 = PERSON_AND_ORGANIZATION ( #52, #183 ) ;
#12 = DATE_TIME_ROLE ( 'classification_date' ) ;
#13 = LOCAL_TIME ( 9, 40, 22.00000000000000000, #118 ) ;
#14 = VERTEX_POINT ( 'NONE', #117 ) ;
#15 =( NAMED_UNIT ( * ) PLANE_ANGLE_UNIT ( ) SI_UNIT ( $, .RADIAN. ) );
#16 = UNCERTAINTY_MEASURE_WITH_UNIT (LENGTH_MEASURE( 1.000000000000000082E-05 ), #49, 'distance_accuracy_value', 'NONE');
#17 = DIRECTION ( 'NONE',  ( -3.491481338843133355E-15, 1.224646799147353207E-16, -1.000000000000000000 ) ) ;
#18 = CARTESIAN_POINT ( 'NONE',  ( 1.745740669421566678E-13, -6.123233995736766085E-15, 50.00000000000000000 ) ) ;
#19 = DIRECTION ( 'NONE',  ( -4.275831445896958607E-31, -1.000000000000000000, -1.224646799147353207E-16 ) ) ;
#20 = ORIENTED_EDGE ( 'NONE', *, *, #51, .F. ) ;
#21 = CC_DESIGN_SECURITY_CLASSIFICATION ( #53, ( #139 ) ) ;
#22 = AXIS2_PLACEMENT_3D ( 'NONE', #26, #85, #178 ) ;
#23 = CC_DESIGN_APPROVAL ( #76, ( #53 ) ) ;
#24 = DIRECTION ( 'NONE',  ( -3.491481338843133355E-15, 1.224646799147353207E-16, -1.000000000000000000 ) ) ;
#25 = SHAPE_DEFINITION_REPRESENTATION ( #40, #129 ) ;
#26 = CARTESIAN_POINT ( 'NONE',  ( 1.745740669421566678E-13, 1.199807826129477054E-32, 50.00000000000000000 ) ) ;
#27 = APPROVAL_PERSON_ORGANIZATION ( #81, #76, #43 ) ;
#28 = APPROVAL_STATUS ( 'not_yet_approved' ) ;
#29 = ADVANCED_FACE ( 'NONE', ( #119, #190 ), #182, .T. ) ;
#30 = CARTESIAN_POINT ( 'NONE',  ( 1.068956901946738224E-31, 1.999999999999994005, 3.061614249672391923E-17 ) ) ;
#31 = APPROVAL_STATUS ( 'not_yet_approved' ) ;
#32 = MECHANICAL_CONTEXT ( 'NONE', #55, 'mechanical' ) ;
#33 = COORDINATED_UNIVERSAL_TIME_OFFSET ( 1, 0, .AHEAD. ) ;
#34 = AXIS2_PLACEMENT_3D ( 'NONE', #105, #35, #89 ) ;
#35 = DIRECTION ( 'NONE',  ( 0.0000000000000000000, 0.0000000000000000000, 1.000000000000000000 ) ) ;
#36 = PRODUCT_DEFINITION ( 'UNKNOWN', '', #139, #191 ) ;
#37 = DIRECTION ( 'NONE',  ( -3.491481338843133355E-15, 1.224646799147353207E-16, -1.000000000000000000 ) ) ;
#38 = CARTESIAN_POINT ( 'NONE',  ( 1.745740669421566678E-13, -6.123233995736766085E-15, 50.00000000000000000 ) ) ;
#39 =( NAMED_UNIT ( * ) SI_UNIT ( $, .STERADIAN. ) SOLID_ANGLE_UNIT ( ) );
#40 = PRODUCT_DEFINITION_SHAPE ( 'NONE', 'NONE',  #36 ) ;
#41 = APPROVAL ( #28, 'UNSPECIFIED' ) ;
#42 = CC_DESIGN_APPROVAL ( #41, ( #139 ) ) ;
#43 = APPROVAL_ROLE ( '' ) ;
#44 = EDGE_LOOP ( 'NONE', ( #113 ) ) ;
#45 = DIRECTION ( 'NONE',  ( 0.0000000000000000000, 1.000000000000000000, 0.0000000000000000000 ) ) ;
#46 = CALENDAR_DATE ( 2021, 8, 12 ) ;
#47 = DATE_TIME_ROLE ( 'creation_date' ) ;
#48 = EDGE_LOOP ( 'NONE', ( #5 ) ) ;
#49 =( LENGTH_UNIT ( ) NAMED_UNIT ( * ) SI_UNIT ( .MILLI., .METRE. ) );
#50 = AXIS2_PLACEMENT_3D ( 'NONE', #38, #37, #71 ) ;
#51 = EDGE_CURVE ( 'NONE', #155, #155, #107, .T. ) ;
#52 = PERSON ( 'UNSPECIFIED', 'UNSPECIFIED', 'UNSPECIFIED', ('UNSPECIFIED'), ('UNSPECIFIED'), ('UNSPECIFIED') ) ;
#53 = SECURITY_CLASSIFICATION ( '', '', #127 ) ;
#54 = FACE_OUTER_BOUND ( 'NONE', #87, .T. ) ;
#55 = APPLICATION_CONTEXT ( 'configuration controlled 3d designs of mechanical parts and assemblies' ) ;
#56 = AXIS2_PLACEMENT_3D ( 'NONE', #74, #99, #176 ) ;
#57 = EDGE_LOOP ( 'NONE', ( #163 ) ) ;
#58 = CC_DESIGN_PERSON_AND_ORGANIZATION_ASSIGNMENT ( #11, #126, ( #139 ) ) ;
#59 = PERSON_AND_ORGANIZATION ( #52, #183 ) ;
#60 = CARTESIAN_POINT ( 'NONE',  ( -7.482705989847154028E-31, 2.624579956215183927E-32, -2.143132173327459950E-16 ) ) ;
#61 = DATE_AND_TIME ( #149, #166 ) ;
#62 = CC_DESIGN_PERSON_AND_ORGANIZATION_ASSIGNMENT ( #84, #188, ( #53 ) ) ;
#63 = CALENDAR_DATE ( 2021, 8, 12 ) ;
#64 = APPROVAL_STATUS ( 'not_yet_approved' ) ;
#65 = APPLICATION_PROTOCOL_DEFINITION ( 'international standard', 'config_control_design', 1994, #80 ) ;
#66 = ADVANCED_FACE ( 'NONE', ( #184, #108 ), #165, .T. ) ;
#67 = AXIS2_PLACEMENT_3D ( 'NONE', #18, #140, #193 ) ;
#68 = CIRCLE ( 'NONE', #67, 1.600000000000000089 ) ;
#69 = CARTESIAN_POINT ( 'NONE',  ( 0.0000000000000000000, 0.0000000000000000000, 0.0000000000000000000 ) ) ;
#70 = EDGE_CURVE ( 'NONE', #14, #14, #68, .T. ) ;
#71 = DIRECTION ( 'NONE',  ( 0.0000000000000000000, 1.000000000000000000, 0.0000000000000000000 ) ) ;
#72 = CIRCLE ( 'NONE', #151, 1.999999999999995337 ) ;
#73 = CC_DESIGN_APPROVAL ( #201, ( #36 ) ) ;
#74 = CARTESIAN_POINT ( 'NONE',  ( 0.0000000000000000000, 0.0000000000000000000, 0.0000000000000000000 ) ) ;
#75 = ADVANCED_FACE ( 'NONE', ( #54 ), #150, .F. ) ;
#76 = APPROVAL ( #31, 'UNSPECIFIED' ) ;
#77 = ORIENTED_EDGE ( 'NONE', *, *, #121, .T. ) ;
#78 = COORDINATED_UNIVERSAL_TIME_OFFSET ( 1, 0, .AHEAD. ) ;
#79 = PLANE ( 'NONE',  #22 ) ;
#80 = APPLICATION_CONTEXT ( 'configuration controlled 3d designs of mechanical parts and assemblies' ) ;
#81 = PERSON_AND_ORGANIZATION ( #52, #183 ) ;
#82 = DIRECTION ( 'NONE',  ( 4.275831445896959482E-31, 1.000000000000000000, 1.224646799147353207E-16 ) ) ;
#83 = CARTESIAN_POINT ( 'NONE',  ( 4.189777606611760026E-14, 1.999999999999994005, 12.00000000000000000 ) ) ;
#84 = PERSON_AND_ORGANIZATION ( #52, #183 ) ;
#85 = DIRECTION ( 'NONE',  ( -3.491481338843133355E-15, 1.224646799147353207E-16, -1.000000000000000000 ) ) ;
#86 = APPROVAL_DATE_TIME ( #101, #41 ) ;
#87 = EDGE_LOOP ( 'NONE', ( #77 ) ) ;
#88 = ORIENTED_EDGE ( 'NONE', *, *, #95, .F. ) ;
#89 = DIRECTION ( 'NONE',  ( 1.000000000000000000, 0.0000000000000000000, 0.0000000000000000000 ) ) ;
#90 = ADVANCED_FACE ( 'NONE', ( #92, #154 ), #3, .T. ) ;
#91 = FACE_OUTER_BOUND ( 'NONE', #189, .T. ) ;
#92 = FACE_OUTER_BOUND ( 'NONE', #110, .T. ) ;
#93 = CARTESIAN_POINT ( 'NONE',  ( -3.741352994923577014E-31, 1.312289978107591963E-32, -1.071566086663729975E-16 ) ) ;
#94 = APPROVAL_PERSON_ORGANIZATION ( #164, #41, #143 ) ;
#95 = EDGE_CURVE ( 'NONE', #160, #160, #72, .T. ) ;
#96 = EDGE_LOOP ( 'NONE', ( #106 ) ) ;
#97 = CIRCLE ( 'NONE', #103, 1.999999999999995337 ) ;
#98 = DIRECTION ( 'NONE',  ( -3.491481338843133355E-15, 1.224646799147353207E-16, -1.000000000000000000 ) ) ;
#99 = DIRECTION ( 'NONE',  ( -3.491481338843133355E-15, 1.224646799147353207E-16, -1.000000000000000000 ) ) ;
#100 = DIRECTION ( 'NONE',  ( -3.491481338843133355E-15, 1.224646799147353207E-16, -1.000000000000000000 ) ) ;
#101 = DATE_AND_TIME ( #46, #120 ) ;
#102 = PERSON_AND_ORGANIZATION ( #52, #183 ) ;
#103 = AXIS2_PLACEMENT_3D ( 'NONE', #162, #98, #9 ) ;
#104 = LOCAL_TIME ( 9, 40, 22.00000000000000000, #78 ) ;
#105 = CARTESIAN_POINT ( 'NONE',  ( 0.0000000000000000000, 0.0000000000000000000, 0.0000000000000000000 ) ) ;
#106 = ORIENTED_EDGE ( 'NONE', *, *, #95, .T. ) ;
#107 = CIRCLE ( 'NONE', #159, 1.999999999999999556 ) ;
#108 = FACE_BOUND ( 'NONE', #44, .T. ) ;
#109 = PLANE ( 'NONE',  #171 ) ;
#110 = EDGE_LOOP ( 'NONE', ( #156 ) ) ;
#111 = DIRECTION ( 'NONE',  ( -4.275831445896958607E-31, -1.000000000000000000, -1.224646799147353207E-16 ) ) ;
#112 = CLOSED_SHELL ( 'NONE', ( #187, #29, #203 ) ) ;
#113 = ORIENTED_EDGE ( 'NONE', *, *, #70, .T. ) ;
#114 = EDGE_LOOP ( 'NONE', ( #142 ) ) ;
#115 = AXIS2_PLACEMENT_3D ( 'NONE', #60, #100, #82 ) ;
#116 = COORDINATED_UNIVERSAL_TIME_OFFSET ( 1, 0, .AHEAD. ) ;
#117 = CARTESIAN_POINT ( 'NONE',  ( 1.745740669421566678E-13, 1.599999999999994094, 50.00000000000000000 ) ) ;
#118 = COORDINATED_UNIVERSAL_TIME_OFFSET ( 1, 0, .AHEAD. ) ;
#119 = FACE_OUTER_BOUND ( 'NONE', #134, .T. ) ;
#120 = LOCAL_TIME ( 9, 40, 22.00000000000000000, #196 ) ;
#121 = EDGE_CURVE ( 'NONE', #10, #10, #97, .T. ) ;
#122 = DIRECTION ( 'NONE',  ( 3.491481338843133355E-15, -1.224646799147353207E-16, 1.000000000000000000 ) ) ;
#123 = CC_DESIGN_PERSON_AND_ORGANIZATION_ASSIGNMENT ( #59, #145, ( #139 ) ) ;
#124 = DIRECTION ( 'NONE',  ( 4.275831445896958607E-31, 1.000000000000000000, 1.224646799147353207E-16 ) ) ;
#125 = DIRECTION ( 'NONE',  ( 3.491481338843133355E-15, -1.224646799147353207E-16, 1.000000000000000000 ) ) ;
#126 = PERSON_AND_ORGANIZATION_ROLE ( 'design_supplier' ) ;
#127 = SECURITY_CLASSIFICATION_LEVEL ( 'unclassified' ) ;
#128 = VERTEX_POINT ( 'NONE', #30 ) ;
#129 = ADVANCED_BREP_SHAPE_REPRESENTATION ( '372597', ( #146, #202, #34 ), #153 ) ;
#130 = ADVANCED_FACE ( 'NONE', ( #195 ), #79, .F. ) ;
#131 = PERSON_AND_ORGANIZATION_ROLE ( 'design_owner' ) ;
#132 = EDGE_LOOP ( 'NONE', ( #20 ) ) ;
#133 = APPROVAL_ROLE ( '' ) ;
#134 = EDGE_LOOP ( 'NONE', ( #167 ) ) ;
#135 = APPROVAL_PERSON_ORGANIZATION ( #102, #201, #133 ) ;
#136 = PRODUCT_RELATED_PRODUCT_CATEGORY ( 'detail', '', ( #137 ) ) ;
#137 = PRODUCT ( '372597', '372597', '', ( #32 ) ) ;
#138 = AXIS2_PLACEMENT_3D ( 'NONE', #69, #192, #124 ) ;
#139 = PRODUCT_DEFINITION_FORMATION_WITH_SPECIFIED_SOURCE ( 'ANY', '', #137, .NOT_KNOWN. ) ;
#140 = DIRECTION ( 'NONE',  ( -3.491481338843133355E-15, 1.224646799147353207E-16, -1.000000000000000000 ) ) ;
#141 = CC_DESIGN_PERSON_AND_ORGANIZATION_ASSIGNMENT ( #177, #131, ( #137 ) ) ;
#142 = ORIENTED_EDGE ( 'NONE', *, *, #51, .T. ) ;
#143 = APPROVAL_ROLE ( '' ) ;
#144 = CALENDAR_DATE ( 2021, 8, 12 ) ;
#145 = PERSON_AND_ORGANIZATION_ROLE ( 'creator' ) ;
#146 = MANIFOLD_SOLID_BREP ( 'Corps-Déplacer/Copier1[1]', #181 ) ;
#147 = PERSON_AND_ORGANIZATION_ROLE ( 'creator' ) ;
#148 = CIRCLE ( 'NONE', #115, 1.999999999999994005 ) ;
#149 = CALENDAR_DATE ( 2021, 8, 12 ) ;
#150 = PLANE ( 'NONE',  #7 ) ;
#151 = AXIS2_PLACEMENT_3D ( 'NONE', #158, #24, #45 ) ;
#152 = DIRECTION ( 'NONE',  ( 0.0000000000000000000, 1.000000000000000000, 0.0000000000000000000 ) ) ;
#153 =( GEOMETRIC_REPRESENTATION_CONTEXT ( 3 ) GLOBAL_UNCERTAINTY_ASSIGNED_CONTEXT ( ( #16 ) ) GLOBAL_UNIT_ASSIGNED_CONTEXT ( ( #49, #15, #39 ) ) REPRESENTATION_CONTEXT ( 'NONE', 'WORKASPACE' ) );
#154 = FACE_OUTER_BOUND ( 'NONE', #114, .T. ) ;
#155 = VERTEX_POINT ( 'NONE', #194 ) ;
#156 = ORIENTED_EDGE ( 'NONE', *, *, #121, .F. ) ;
#157 = CC_DESIGN_DATE_AND_TIME_ASSIGNMENT ( #161, #47, ( #36 ) ) ;
#158 = CARTESIAN_POINT ( 'NONE',  ( 4.189777606611760026E-14, -1.469576158976823947E-15, 12.00000000000000000 ) ) ;
#159 = AXIS2_PLACEMENT_3D ( 'NONE', #169, #17, #152 ) ;
#160 = VERTEX_POINT ( 'NONE', #197 ) ;
#161 = DATE_AND_TIME ( #63, #104 ) ;
#162 = CARTESIAN_POINT ( 'NONE',  ( 4.189777606611760026E-14, -1.469576158976823947E-15, 12.00000000000000000 ) ) ;
#163 = ORIENTED_EDGE ( 'NONE', *, *, #173, .T. ) ;
#164 = PERSON_AND_ORGANIZATION ( #52, #183 ) ;
#165 = CONICAL_SURFACE ( 'NONE', #50, 1.600000000000000089, 0.7853981633974507215 ) ;
#166 = LOCAL_TIME ( 9, 40, 22.00000000000000000, #116 ) ;
#167 = ORIENTED_EDGE ( 'NONE', *, *, #173, .F. ) ;
#168 = PERSON_AND_ORGANIZATION ( #52, #183 ) ;
#169 = CARTESIAN_POINT ( 'NONE',  ( 1.731774744066194397E-13, -6.074248123770872657E-15, 49.60000000000000853 ) ) ;
#170 = DIRECTION ( 'NONE',  ( 3.491481338843133355E-15, -1.224646799147353207E-16, 1.000000000000000000 ) ) ;
#171 = AXIS2_PLACEMENT_3D ( 'NONE', #93, #170, #19 ) ;
#172 = APPLICATION_PROTOCOL_DEFINITION ( 'international standard', 'config_control_design', 1994, #55 ) ;
#173 = EDGE_CURVE ( 'NONE', #128, #128, #148, .T. ) ;
#174 = DIRECTION ( 'NONE',  ( -4.275831445896958607E-31, -1.000000000000000000, -1.224646799147353207E-16 ) ) ;
#175 = APPROVAL_DATE_TIME ( #61, #76 ) ;
#176 = DIRECTION ( 'NONE',  ( 4.275831445896959482E-31, 1.000000000000000000, 1.224646799147353454E-16 ) ) ;
#177 = PERSON_AND_ORGANIZATION ( #52, #183 ) ;
#178 = DIRECTION ( 'NONE',  ( 4.275831445896958607E-31, 1.000000000000000000, 1.224646799147353207E-16 ) ) ;
#179 = CC_DESIGN_PERSON_AND_ORGANIZATION_ASSIGNMENT ( #168, #147, ( #36 ) ) ;
#180 = DATE_AND_TIME ( #8, #13 ) ;
#181 = CLOSED_SHELL ( 'NONE', ( #75, #90, #66, #130 ) ) ;
#182 = CYLINDRICAL_SURFACE ( 'NONE', #138, 1.999999999999994893 ) ;
#183 = ORGANIZATION ( 'UNSPECIFIED', 'UNSPECIFIED', '' ) ;
#184 = FACE_OUTER_BOUND ( 'NONE', #132, .T. ) ;
#185 = CARTESIAN_POINT ( 'NONE',  ( 4.189777606611760026E-14, 1.499759782661852408E-32, 12.00000000000000000 ) ) ;
#186 = DATE_AND_TIME ( #144, #2 ) ;
#187 = ADVANCED_FACE ( 'NONE', ( #199 ), #109, .F. ) ;
#188 = PERSON_AND_ORGANIZATION_ROLE ( 'classification_officer' ) ;
#189 = EDGE_LOOP ( 'NONE', ( #88 ) ) ;
#190 = FACE_OUTER_BOUND ( 'NONE', #96, .T. ) ;
#191 = DESIGN_CONTEXT ( 'detailed design', #80, 'design' ) ;
#192 = DIRECTION ( 'NONE',  ( -3.491481338843133355E-15, 1.224646799147353207E-16, -1.000000000000000000 ) ) ;
#193 = DIRECTION ( 'NONE',  ( 0.0000000000000000000, 1.000000000000000000, 0.0000000000000000000 ) ) ;
#194 = CARTESIAN_POINT ( 'NONE',  ( 1.731774744066194397E-13, 1.999999999999993561, 49.60000000000000853 ) ) ;
#195 = FACE_OUTER_BOUND ( 'NONE', #48, .T. ) ;
#196 = COORDINATED_UNIVERSAL_TIME_OFFSET ( 1, 0, .AHEAD. ) ;
#197 = CARTESIAN_POINT ( 'NONE',  ( 4.189777606611760026E-14, 1.999999999999994005, 12.00000000000000000 ) ) ;
#198 = APPROVAL_DATE_TIME ( #180, #201 ) ;
#199 = FACE_OUTER_BOUND ( 'NONE', #57, .T. ) ;
#200 = CC_DESIGN_DATE_AND_TIME_ASSIGNMENT ( #186, #12, ( #53 ) ) ;
#201 = APPROVAL ( #64, 'UNSPECIFIED' ) ;
#202 = MANIFOLD_SOLID_BREP ( 'Corps-Déplacer/Copier1[2]', #112 ) ;
#203 = ADVANCED_FACE ( 'NONE', ( #91 ), #4, .T. ) ;
ENDSEC;
END-ISO-10303-21;
