ISO-10303-21;
HEADER;
FILE_DESCRIPTION (( 'STEP AP203' ),
    '1' );
FILE_NAME ('372596.step',
    '2021-12-08T08:40:21',
    ( '' ),
    ( '' ),
    'SwSTEP 2.0',
    'SolidWorks 2019',
    '' );
FILE_SCHEMA (( 'CONFIG_CONTROL_DESIGN' ));
ENDSEC;

DATA;
#1 = CARTESIAN_POINT ( 'NONE',  ( 4.189777606611760026E-14, -1.750000000000000222, 12.00000000000000000 ) ) ;
#2 = CIRCLE ( 'NONE', #121, 1.749999999999998668 ) ;
#3 = DIRECTION ( 'NONE',  ( 3.491481338843133355E-15, -1.224646799147353207E-16, 1.000000000000000000 ) ) ;
#4 = DIRECTION ( 'NONE',  ( 0.0000000000000000000, -1.000000000000000000, 0.0000000000000000000 ) ) ;
#5 = EDGE_CURVE ( 'NONE', #15, #15, #198, .T. ) ;
#6 = DATE_AND_TIME ( #159, #58 ) ;
#7 = DIRECTION ( 'NONE',  ( 0.0000000000000000000, 1.000000000000000000, 0.0000000000000000000 ) ) ;
#8 = AXIS2_PLACEMENT_3D ( 'NONE', #147, #32, #100 ) ;
#9 = EDGE_LOOP ( 'NONE', ( #178 ) ) ;
#10 = EDGE_CURVE ( 'NONE', #106, #106, #139, .T. ) ;
#11 = ORIENTED_EDGE ( 'NONE', *, *, #125, .T. ) ;
#12 = AXIS2_PLACEMENT_3D ( 'NONE', #145, #146, #7 ) ;
#13 = MANIFOLD_SOLID_BREP ( 'Corps-Déplacer/Copier1[2]', #188 ) ;
#14 = CC_DESIGN_PERSON_AND_ORGANIZATION_ASSIGNMENT ( #172, #16, ( #92 ) ) ;
#15 = VERTEX_POINT ( 'NONE', #37 ) ;
#16 = PERSON_AND_ORGANIZATION_ROLE ( 'design_supplier' ) ;
#17 = DIRECTION ( 'NONE',  ( -3.491481338843133355E-15, 1.224646799147353207E-16, -1.000000000000000000 ) ) ;
#18 = FACE_OUTER_BOUND ( 'NONE', #136, .T. ) ;
#19 = FACE_BOUND ( 'NONE', #9, .T. ) ;
#20 = CARTESIAN_POINT ( 'NONE',  ( 4.189777606611760026E-14, -1.531760773402434319E-15, 12.00000000000000000 ) ) ;
#21 = APPROVAL_STATUS ( 'not_yet_approved' ) ;
#22 = VERTEX_POINT ( 'NONE', #143 ) ;
#23 = DIRECTION ( 'NONE',  ( -4.275831445896958607E-31, -1.000000000000000000, -1.224646799147353207E-16 ) ) ;
#24 = APPLICATION_PROTOCOL_DEFINITION ( 'international standard', 'config_control_design', 1994, #200 ) ;
#25 = PERSON_AND_ORGANIZATION_ROLE ( 'creator' ) ;
#26 = ORIENTED_EDGE ( 'NONE', *, *, #10, .T. ) ;
#27 = CIRCLE ( 'NONE', #149, 1.999999999999996669 ) ;
#28 = ADVANCED_FACE ( 'NONE', ( #137, #61 ), #197, .T. ) ;
#29 = ORIENTED_EDGE ( 'NONE', *, *, #5, .F. ) ;
#30 = APPROVAL_PERSON_ORGANIZATION ( #168, #68, #97 ) ;
#31 = APPROVAL_STATUS ( 'not_yet_approved' ) ;
#32 = DIRECTION ( 'NONE',  ( 3.491481338843133355E-15, -1.276467311168695266E-16, 1.000000000000000000 ) ) ;
#33 = SHAPE_DEFINITION_REPRESENTATION ( #82, #138 ) ;
#34 =( GEOMETRIC_REPRESENTATION_CONTEXT ( 3 ) GLOBAL_UNCERTAINTY_ASSIGNED_CONTEXT ( ( #107 ) ) GLOBAL_UNIT_ASSIGNED_CONTEXT ( ( #130, #129, #67 ) ) REPRESENTATION_CONTEXT ( 'NONE', 'WORKASPACE' ) );
#35 = APPROVAL ( #122, 'UNSPECIFIED' ) ;
#36 = CARTESIAN_POINT ( 'NONE',  ( 1.070497048173233334E-13, -3.913681203143629547E-15, 30.66025403784433578 ) ) ;
#37 = CARTESIAN_POINT ( 'NONE',  ( -6.332562274213637616E-32, -1.749999999999997558, -1.813717920747035212E-17 ) ) ;
#38 = DIRECTION ( 'NONE',  ( 0.0000000000000000000, 0.0000000000000000000, 1.000000000000000000 ) ) ;
#39 = CC_DESIGN_DATE_AND_TIME_ASSIGNMENT ( #204, #170, ( #219 ) ) ;
#40 = AXIS2_PLACEMENT_3D ( 'NONE', #120, #182, #154 ) ;
#41 = DESIGN_CONTEXT ( 'detailed design', #200, 'design' ) ;
#42 = DIRECTION ( 'NONE',  ( 0.0000000000000000000, 1.000000000000000000, 0.0000000000000000000 ) ) ;
#43 = EDGE_LOOP ( 'NONE', ( #117 ) ) ;
#44 = ORIENTED_EDGE ( 'NONE', *, *, #125, .F. ) ;
#45 = APPROVAL ( #21, 'UNSPECIFIED' ) ;
#46 = AXIS2_PLACEMENT_3D ( 'NONE', #206, #113, #42 ) ;
#47 = ORIENTED_EDGE ( 'NONE', *, *, #53, .T. ) ;
#48 = ORIENTED_EDGE ( 'NONE', *, *, #59, .F. ) ;
#49 = CARTESIAN_POINT ( 'NONE',  ( 4.189777606611760026E-14, -1.531760773402434319E-15, 12.00000000000000000 ) ) ;
#50 = APPROVAL_DATE_TIME ( #183, #68 ) ;
#51 = APPROVAL_PERSON_ORGANIZATION ( #73, #45, #72 ) ;
#52 = PERSON_AND_ORGANIZATION_ROLE ( 'creator' ) ;
#53 = EDGE_CURVE ( 'NONE', #22, #22, #213, .T. ) ;
#54 = FACE_OUTER_BOUND ( 'NONE', #195, .T. ) ;
#55 = CC_DESIGN_PERSON_AND_ORGANIZATION_ASSIGNMENT ( #217, #102, ( #150 ) ) ;
#56 = DIRECTION ( 'NONE',  ( 4.275831445896958607E-31, 1.000000000000000000, 1.224646799147353207E-16 ) ) ;
#57 = FACE_OUTER_BOUND ( 'NONE', #116, .T. ) ;
#58 = LOCAL_TIME ( 9, 40, 21.00000000000000000, #91 ) ;
#59 = EDGE_CURVE ( 'NONE', #90, #90, #112, .T. ) ;
#60 = EDGE_LOOP ( 'NONE', ( #180 ) ) ;
#61 = FACE_OUTER_BOUND ( 'NONE', #135, .T. ) ;
#62 = CC_DESIGN_APPROVAL ( #45, ( #219 ) ) ;
#63 = CALENDAR_DATE ( 2021, 8, 12 ) ;
#64 = AXIS2_PLACEMENT_3D ( 'NONE', #131, #114, #23 ) ;
#65 = CC_DESIGN_APPROVAL ( #35, ( #92 ) ) ;
#66 = CALENDAR_DATE ( 2021, 8, 12 ) ;
#67 =( NAMED_UNIT ( * ) SI_UNIT ( $, .STERADIAN. ) SOLID_ANGLE_UNIT ( ) );
#68 = APPROVAL ( #31, 'UNSPECIFIED' ) ;
#69 = VERTEX_POINT ( 'NONE', #142 ) ;
#70 = AXIS2_PLACEMENT_3D ( 'NONE', #153, #128, #173 ) ;
#71 = PLANE ( 'NONE',  #64 ) ;
#72 = APPROVAL_ROLE ( '' ) ;
#73 = PERSON_AND_ORGANIZATION ( #192, #221 ) ;
#74 = CLOSED_SHELL ( 'NONE', ( #133, #148, #165, #184, #76 ) ) ;
#75 = CC_DESIGN_PERSON_AND_ORGANIZATION_ASSIGNMENT ( #115, #111, ( #185 ) ) ;
#76 = ADVANCED_FACE ( 'NONE', ( #18 ), #207, .F. ) ;
#77 = EDGE_LOOP ( 'NONE', ( #47 ) ) ;
#78 = COORDINATED_UNIVERSAL_TIME_OFFSET ( 1, 0, .AHEAD. ) ;
#79 = MANIFOLD_SOLID_BREP ( 'Corps-Déplacer/Copier1[1]', #74 ) ;
#80 = DATE_AND_TIME ( #99, #210 ) ;
#81 = AXIS2_PLACEMENT_3D ( 'NONE', #109, #17, #56 ) ;
#82 = PRODUCT_DEFINITION_SHAPE ( 'NONE', 'NONE',  #219 ) ;
#83 = PERSON_AND_ORGANIZATION ( #192, #221 ) ;
#84 = COORDINATED_UNIVERSAL_TIME_OFFSET ( 1, 0, .AHEAD. ) ;
#85 = DIRECTION ( 'NONE',  ( 0.0000000000000000000, -1.000000000000000000, 0.0000000000000000000 ) ) ;
#86 = LOCAL_TIME ( 9, 40, 21.00000000000000000, #214 ) ;
#87 = CARTESIAN_POINT ( 'NONE',  ( -3.741332470685468447E-31, 1.312282779173940398E-32, -1.071560208288302332E-16 ) ) ;
#88 = EDGE_CURVE ( 'NONE', #69, #69, #2, .T. ) ;
#89 = FACE_OUTER_BOUND ( 'NONE', #161, .T. ) ;
#90 = VERTEX_POINT ( 'NONE', #158 ) ;
#91 = COORDINATED_UNIVERSAL_TIME_OFFSET ( 1, 0, .AHEAD. ) ;
#92 = PRODUCT_DEFINITION_FORMATION_WITH_SPECIFIED_SOURCE ( 'ANY', '', #185, .NOT_KNOWN. ) ;
#93 = ADVANCED_FACE ( 'NONE', ( #57 ), #71, .T. ) ;
#94 = CARTESIAN_POINT ( 'NONE',  ( 1.733520484735615553E-13, -6.080371357766608941E-15, 49.64999999999999858 ) ) ;
#95 = CARTESIAN_POINT ( 'NONE',  ( 4.515537250367784337E-14, -1.650856794889492769E-15, 12.93301270189220453 ) ) ;
#96 = LOCAL_TIME ( 9, 40, 21.00000000000000000, #169 ) ;
#97 = APPROVAL_ROLE ( '' ) ;
#98 = ORIENTED_EDGE ( 'NONE', *, *, #10, .F. ) ;
#99 = CALENDAR_DATE ( 2021, 8, 12 ) ;
#100 = DIRECTION ( 'NONE',  ( -4.456761796588770537E-31, -1.000000000000000000, -1.276467311168695512E-16 ) ) ;
#101 = DIRECTION ( 'NONE',  ( 0.0000000000000000000, -1.000000000000000000, 0.0000000000000000000 ) ) ;
#102 = PERSON_AND_ORGANIZATION_ROLE ( 'classification_officer' ) ;
#103 = PRODUCT_RELATED_PRODUCT_CATEGORY ( 'detail', '', ( #185 ) ) ;
#104 = DIRECTION ( 'NONE',  ( -3.491481338843133355E-15, 1.276467311168695266E-16, -1.000000000000000000 ) ) ;
#105 = APPROVAL_ROLE ( '' ) ;
#106 = VERTEX_POINT ( 'NONE', #1 ) ;
#107 = UNCERTAINTY_MEASURE_WITH_UNIT (LENGTH_MEASURE( 1.000000000000000082E-05 ), #130, 'distance_accuracy_value', 'NONE');
#108 = CC_DESIGN_SECURITY_CLASSIFICATION ( #150, ( #92 ) ) ;
#109 = CARTESIAN_POINT ( 'NONE',  ( 0.0000000000000000000, 0.0000000000000000000, 0.0000000000000000000 ) ) ;
#110 = DIRECTION ( 'NONE',  ( 3.491481338843133355E-15, -1.276467311168695266E-16, 1.000000000000000000 ) ) ;
#111 = PERSON_AND_ORGANIZATION_ROLE ( 'design_owner' ) ;
#112 = CIRCLE ( 'NONE', #12, 1.649999999999998579 ) ;
#113 = DIRECTION ( 'NONE',  ( -3.491481338843133355E-15, 1.224646799147353207E-16, -1.000000000000000000 ) ) ;
#114 = DIRECTION ( 'NONE',  ( 3.491481338843133355E-15, -1.224646799147353207E-16, 1.000000000000000000 ) ) ;
#115 = PERSON_AND_ORGANIZATION ( #192, #221 ) ;
#116 = EDGE_LOOP ( 'NONE', ( #26 ) ) ;
#117 = ORIENTED_EDGE ( 'NONE', *, *, #5, .T. ) ;
#118 = AXIS2_PLACEMENT_3D ( 'NONE', #132, #38, #157 ) ;
#119 = ORIENTED_EDGE ( 'NONE', *, *, #88, .T. ) ;
#120 = CARTESIAN_POINT ( 'NONE',  ( -6.413839710158237013E-31, 0.0000000000000000000, -1.836996703606440502E-16 ) ) ;
#121 = AXIS2_PLACEMENT_3D ( 'NONE', #20, #156, #4 ) ;
#122 = APPROVAL_STATUS ( 'not_yet_approved' ) ;
#123 = DIRECTION ( 'NONE',  ( -3.491481338843133355E-15, 1.224646799147353207E-16, -1.000000000000000000 ) ) ;
#124 = FACE_OUTER_BOUND ( 'NONE', #77, .T. ) ;
#125 = EDGE_CURVE ( 'NONE', #209, #209, #27, .T. ) ;
#126 = CARTESIAN_POINT ( 'NONE',  ( 4.515537250367784337E-14, -1.999999999999998224, 12.93301270189220453 ) ) ;
#127 = DIRECTION ( 'NONE',  ( 0.0000000000000000000, 1.000000000000000000, 0.0000000000000000000 ) ) ;
#128 = DIRECTION ( 'NONE',  ( 3.491481338843133355E-15, -1.224646799147353207E-16, 1.000000000000000000 ) ) ;
#129 =( NAMED_UNIT ( * ) PLANE_ANGLE_UNIT ( ) SI_UNIT ( $, .RADIAN. ) );
#130 =( LENGTH_UNIT ( ) NAMED_UNIT ( * ) SI_UNIT ( .MILLI., .METRE. ) );
#131 = CARTESIAN_POINT ( 'NONE',  ( 4.189777606611760026E-14, 1.499759782661852134E-32, 12.00000000000000000 ) ) ;
#132 = CARTESIAN_POINT ( 'NONE',  ( 0.0000000000000000000, 0.0000000000000000000, 0.0000000000000000000 ) ) ;
#133 = ADVANCED_FACE ( 'NONE', ( #124, #189 ), #222, .T. ) ;
#134 = PERSON_AND_ORGANIZATION ( #192, #221 ) ;
#135 = EDGE_LOOP ( 'NONE', ( #98 ) ) ;
#136 = EDGE_LOOP ( 'NONE', ( #211 ) ) ;
#137 = FACE_OUTER_BOUND ( 'NONE', #43, .T. ) ;
#138 = ADVANCED_BREP_SHAPE_REPRESENTATION ( '372596', ( #79, #13, #118 ), #34 ) ;
#139 = CIRCLE ( 'NONE', #202, 1.749999999999998668 ) ;
#140 = APPROVAL_DATE_TIME ( #6, #45 ) ;
#141 = DATE_AND_TIME ( #201, #216 ) ;
#142 = CARTESIAN_POINT ( 'NONE',  ( 4.189777606611760026E-14, -1.750000000000000222, 12.00000000000000000 ) ) ;
#143 = CARTESIAN_POINT ( 'NONE',  ( 1.733520484735615553E-13, 1.999999999999992673, 49.64999999999999858 ) ) ;
#144 = CONICAL_SURFACE ( 'NONE', #46, 1.649999999999998579, 0.7853981633974439491 ) ;
#145 = CARTESIAN_POINT ( 'NONE',  ( 1.745740669421566678E-13, -6.123233995736766085E-15, 50.00000000000000000 ) ) ;
#146 = DIRECTION ( 'NONE',  ( -3.491481338843133355E-15, 1.224646799147353207E-16, -1.000000000000000000 ) ) ;
#147 = CARTESIAN_POINT ( 'NONE',  ( 7.166076916608974059E-31, -4.964746472970739823E-32, 2.052446002470510143E-16 ) ) ;
#148 = ADVANCED_FACE ( 'NONE', ( #171, #19 ), #144, .T. ) ;
#149 = AXIS2_PLACEMENT_3D ( 'NONE', #95, #104, #101 ) ;
#150 = SECURITY_CLASSIFICATION ( '', '', #152 ) ;
#151 = PLANE ( 'NONE',  #205 ) ;
#152 = SECURITY_CLASSIFICATION_LEVEL ( 'unclassified' ) ;
#153 = CARTESIAN_POINT ( 'NONE',  ( 4.189777606611760026E-14, 1.499759782661852134E-32, 12.00000000000000000 ) ) ;
#154 = DIRECTION ( 'NONE',  ( -4.456761796588770537E-31, -1.000000000000000000, -1.276467311168695266E-16 ) ) ;
#155 = CARTESIAN_POINT ( 'NONE',  ( 1.745740669421566678E-13, 1.237301820696022400E-32, 50.00000000000000000 ) ) ;
#156 = DIRECTION ( 'NONE',  ( 3.491481338843133355E-15, -1.276467311168695266E-16, 1.000000000000000000 ) ) ;
#157 = DIRECTION ( 'NONE',  ( 1.000000000000000000, 0.0000000000000000000, 0.0000000000000000000 ) ) ;
#158 = CARTESIAN_POINT ( 'NONE',  ( 1.745740669421566678E-13, 1.649999999999992584, 50.00000000000000000 ) ) ;
#159 = CALENDAR_DATE ( 2021, 8, 12 ) ;
#160 = AXIS2_PLACEMENT_3D ( 'NONE', #94, #181, #127 ) ;
#161 = EDGE_LOOP ( 'NONE', ( #11 ) ) ;
#162 = EDGE_LOOP ( 'NONE', ( #29 ) ) ;
#163 = CONICAL_SURFACE ( 'NONE', #191, 6.750000000000000000, 0.2617993877991501295 ) ;
#164 = EDGE_LOOP ( 'NONE', ( #119 ) ) ;
#165 = ADVANCED_FACE ( 'NONE', ( #54 ), #151, .F. ) ;
#166 = DATE_TIME_ROLE ( 'classification_date' ) ;
#167 = DIRECTION ( 'NONE',  ( 3.491481338843133355E-15, -1.276467311168695266E-16, 1.000000000000000000 ) ) ;
#168 = PERSON_AND_ORGANIZATION ( #192, #221 ) ;
#169 = COORDINATED_UNIVERSAL_TIME_OFFSET ( 1, 0, .AHEAD. ) ;
#170 = DATE_TIME_ROLE ( 'creation_date' ) ;
#171 = FACE_OUTER_BOUND ( 'NONE', #60, .T. ) ;
#172 = PERSON_AND_ORGANIZATION ( #192, #221 ) ;
#173 = DIRECTION ( 'NONE',  ( -4.275831445896958607E-31, -1.000000000000000000, -1.224646799147353207E-16 ) ) ;
#174 = DIRECTION ( 'NONE',  ( 4.275831445896958607E-31, 1.000000000000000000, 1.224646799147353207E-16 ) ) ;
#175 = APPROVAL_PERSON_ORGANIZATION ( #186, #35, #105 ) ;
#176 = FACE_BOUND ( 'NONE', #164, .T. ) ;
#177 = APPLICATION_CONTEXT ( 'configuration controlled 3d designs of mechanical parts and assemblies' ) ;
#178 = ORIENTED_EDGE ( 'NONE', *, *, #59, .T. ) ;
#179 = CC_DESIGN_DATE_AND_TIME_ASSIGNMENT ( #80, #166, ( #150 ) ) ;
#180 = ORIENTED_EDGE ( 'NONE', *, *, #53, .F. ) ;
#181 = DIRECTION ( 'NONE',  ( -3.491481338843133355E-15, 1.224646799147353207E-16, -1.000000000000000000 ) ) ;
#182 = DIRECTION ( 'NONE',  ( 3.491481338843133355E-15, -1.276467311168695266E-16, 1.000000000000000000 ) ) ;
#183 = DATE_AND_TIME ( #63, #86 ) ;
#184 = ADVANCED_FACE ( 'NONE', ( #176, #89 ), #163, .T. ) ;
#185 = PRODUCT ( '372596', '372596', '', ( #193 ) ) ;
#186 = PERSON_AND_ORGANIZATION ( #192, #221 ) ;
#187 = PLANE ( 'NONE',  #212 ) ;
#188 = CLOSED_SHELL ( 'NONE', ( #93, #28, #199 ) ) ;
#189 = FACE_OUTER_BOUND ( 'NONE', #196, .T. ) ;
#190 = APPLICATION_PROTOCOL_DEFINITION ( 'international standard', 'config_control_design', 1994, #177 ) ;
#191 = AXIS2_PLACEMENT_3D ( 'NONE', #36, #110, #85 ) ;
#192 = PERSON ( 'UNSPECIFIED', 'UNSPECIFIED', 'UNSPECIFIED', ('UNSPECIFIED'), ('UNSPECIFIED'), ('UNSPECIFIED') ) ;
#193 = MECHANICAL_CONTEXT ( 'NONE', #177, 'mechanical' ) ;
#194 = FACE_OUTER_BOUND ( 'NONE', #162, .T. ) ;
#195 = EDGE_LOOP ( 'NONE', ( #48 ) ) ;
#196 = EDGE_LOOP ( 'NONE', ( #44 ) ) ;
#197 = CYLINDRICAL_SURFACE ( 'NONE', #40, 1.749999999999998002 ) ;
#198 = CIRCLE ( 'NONE', #8, 1.749999999999997558 ) ;
#199 = ADVANCED_FACE ( 'NONE', ( #194 ), #187, .F. ) ;
#200 = APPLICATION_CONTEXT ( 'configuration controlled 3d designs of mechanical parts and assemblies' ) ;
#201 = CALENDAR_DATE ( 2021, 8, 12 ) ;
#202 = AXIS2_PLACEMENT_3D ( 'NONE', #49, #167, #215 ) ;
#203 = CC_DESIGN_APPROVAL ( #68, ( #150 ) ) ;
#204 = DATE_AND_TIME ( #66, #96 ) ;
#205 = AXIS2_PLACEMENT_3D ( 'NONE', #155, #123, #174 ) ;
#206 = CARTESIAN_POINT ( 'NONE',  ( 1.745740669421566678E-13, -6.123233995736766085E-15, 50.00000000000000000 ) ) ;
#207 = PLANE ( 'NONE',  #70 ) ;
#208 = APPROVAL_DATE_TIME ( #141, #35 ) ;
#209 = VERTEX_POINT ( 'NONE', #126 ) ;
#210 = LOCAL_TIME ( 9, 40, 21.00000000000000000, #78 ) ;
#211 = ORIENTED_EDGE ( 'NONE', *, *, #88, .F. ) ;
#212 = AXIS2_PLACEMENT_3D ( 'NONE', #87, #3, #220 ) ;
#213 = CIRCLE ( 'NONE', #160, 1.999999999999998668 ) ;
#214 = COORDINATED_UNIVERSAL_TIME_OFFSET ( 1, 0, .AHEAD. ) ;
#215 = DIRECTION ( 'NONE',  ( 0.0000000000000000000, -1.000000000000000000, 0.0000000000000000000 ) ) ;
#216 = LOCAL_TIME ( 9, 40, 21.00000000000000000, #84 ) ;
#217 = PERSON_AND_ORGANIZATION ( #192, #221 ) ;
#218 = CC_DESIGN_PERSON_AND_ORGANIZATION_ASSIGNMENT ( #134, #25, ( #92 ) ) ;
#219 = PRODUCT_DEFINITION ( 'UNKNOWN', '', #92, #41 ) ;
#220 = DIRECTION ( 'NONE',  ( -4.275831445896958607E-31, -1.000000000000000000, -1.224646799147353207E-16 ) ) ;
#221 = ORGANIZATION ( 'UNSPECIFIED', 'UNSPECIFIED', '' ) ;
#222 = CYLINDRICAL_SURFACE ( 'NONE', #81, 1.999999999999996669 ) ;
#223 = CC_DESIGN_PERSON_AND_ORGANIZATION_ASSIGNMENT ( #83, #52, ( #219 ) ) ;
ENDSEC;
END-ISO-10303-21;
