ISO-10303-21;
HEADER;
FILE_DESCRIPTION (( 'STEP AP203' ),
    '1' );
FILE_NAME ('372595.step',
    '2021-12-08T08:40:20',
    ( '' ),
    ( '' ),
    'SwSTEP 2.0',
    'SolidWorks 2019',
    '' );
FILE_SCHEMA (( 'CONFIG_CONTROL_DESIGN' ));
ENDSEC;

DATA;
#1 = DIRECTION ( 'NONE',  ( -4.275831445896958607E-31, -1.000000000000000000, -1.224646799147353207E-16 ) ) ;
#2 = DIRECTION ( 'NONE',  ( -3.491481338843133355E-15, 1.224646799147353207E-16, -1.000000000000000000 ) ) ;
#3 = ADVANCED_FACE ( 'NONE', ( #186 ), #112, .F. ) ;
#4 = APPROVAL_STATUS ( 'not_yet_approved' ) ;
#5 = LOCAL_TIME ( 9, 40, 20.00000000000000000, #98 ) ;
#6 = APPLICATION_PROTOCOL_DEFINITION ( 'international standard', 'config_control_design', 1994, #196 ) ;
#7 = PRODUCT ( '372595', '372595', '', ( #62 ) ) ;
#8 = CALENDAR_DATE ( 2021, 8, 12 ) ;
#9 = PERSON_AND_ORGANIZATION_ROLE ( 'creator' ) ;
#10 = CIRCLE ( 'NONE', #42, 1.749999999999998446 ) ;
#11 = COORDINATED_UNIVERSAL_TIME_OFFSET ( 1, 0, .AHEAD. ) ;
#12 = ORIENTED_EDGE ( 'NONE', *, *, #79, .F. ) ;
#13 = EDGE_LOOP ( 'NONE', ( #204 ) ) ;
#14 = EDGE_LOOP ( 'NONE', ( #108 ) ) ;
#15 = FACE_BOUND ( 'NONE', #151, .T. ) ;
#16 = CARTESIAN_POINT ( 'NONE',  ( 2.082668618619928889E-13, -7.305018156913962000E-15, 59.64999999999999147 ) ) ;
#17 = FACE_OUTER_BOUND ( 'NONE', #13, .T. ) ;
#18 = DIRECTION ( 'NONE',  ( 3.491481338843133355E-15, -1.276467311168695266E-16, 1.000000000000000000 ) ) ;
#19 = DIRECTION ( 'NONE',  ( 0.0000000000000000000, -1.000000000000000000, 0.0000000000000000000 ) ) ;
#20 = DATE_AND_TIME ( #48, #5 ) ;
#21 = CARTESIAN_POINT ( 'NONE',  ( -6.332562274213637616E-32, -1.749999999999997558, -1.813717920747035212E-17 ) ) ;
#22 = PERSON_AND_ORGANIZATION ( #217, #34 ) ;
#23 = APPROVAL ( #200, 'UNSPECIFIED' ) ;
#24 = CARTESIAN_POINT ( 'NONE',  ( 3.817240982599160822E-14, -1.999999999999999556, 10.93301270189221341 ) ) ;
#25 = DIRECTION ( 'NONE',  ( -4.456761796588770537E-31, -1.000000000000000000, -1.276467311168695266E-16 ) ) ;
#26 = PERSON_AND_ORGANIZATION ( #217, #34 ) ;
#27 = ORIENTED_EDGE ( 'NONE', *, *, #84, .F. ) ;
#28 = AXIS2_PLACEMENT_3D ( 'NONE', #59, #71, #39 ) ;
#29 = CC_DESIGN_PERSON_AND_ORGANIZATION_ASSIGNMENT ( #211, #129, ( #202 ) ) ;
#30 = CC_DESIGN_APPROVAL ( #222, ( #202 ) ) ;
#31 = ORIENTED_EDGE ( 'NONE', *, *, #79, .T. ) ;
#32 = ORIENTED_EDGE ( 'NONE', *, *, #66, .F. ) ;
#33 = EDGE_CURVE ( 'NONE', #116, #116, #171, .T. ) ;
#34 = ORGANIZATION ( 'UNSPECIFIED', 'UNSPECIFIED', '' ) ;
#35 = CYLINDRICAL_SURFACE ( 'NONE', #219, 1.999999999999998224 ) ;
#36 = CARTESIAN_POINT ( 'NONE',  ( 3.491481338843133355E-14, 1.499759782661852408E-32, 10.00000000000000000 ) ) ;
#37 = PRODUCT_DEFINITION_SHAPE ( 'NONE', 'NONE',  #133 ) ;
#38 = ADVANCED_FACE ( 'NONE', ( #70 ), #123, .F. ) ;
#39 = DIRECTION ( 'NONE',  ( -4.275831445896958607E-31, -1.000000000000000000, -1.224646799147353207E-16 ) ) ;
#40 = LOCAL_TIME ( 9, 40, 20.00000000000000000, #141 ) ;
#41 = CARTESIAN_POINT ( 'NONE',  ( 0.0000000000000000000, 0.0000000000000000000, 0.0000000000000000000 ) ) ;
#42 = AXIS2_PLACEMENT_3D ( 'NONE', #73, #187, #19 ) ;
#43 = DIRECTION ( 'NONE',  ( 1.000000000000000000, 0.0000000000000000000, 0.0000000000000000000 ) ) ;
#44 = DIRECTION ( 'NONE',  ( 0.0000000000000000000, 0.0000000000000000000, 1.000000000000000000 ) ) ;
#45 = EDGE_CURVE ( 'NONE', #60, #60, #182, .T. ) ;
#46 = SECURITY_CLASSIFICATION ( '', '', #106 ) ;
#47 = APPROVAL_DATE_TIME ( #130, #58 ) ;
#48 = CALENDAR_DATE ( 2021, 8, 12 ) ;
#49 = PERSON_AND_ORGANIZATION_ROLE ( 'classification_officer' ) ;
#50 = ORIENTED_EDGE ( 'NONE', *, *, #84, .T. ) ;
#51 = CARTESIAN_POINT ( 'NONE',  ( 0.0000000000000000000, 0.0000000000000000000, 0.0000000000000000000 ) ) ;
#52 = PRODUCT_RELATED_PRODUCT_CATEGORY ( 'detail', '', ( #7 ) ) ;
#53 = DIRECTION ( 'NONE',  ( 4.275831445896958607E-31, 1.000000000000000000, 1.224646799147353207E-16 ) ) ;
#54 = ADVANCED_BREP_SHAPE_REPRESENTATION ( '372595', ( #72, #149, #85 ), #156 ) ;
#55 = DIRECTION ( 'NONE',  ( 0.0000000000000000000, 1.000000000000000000, 0.0000000000000000000 ) ) ;
#56 = CC_DESIGN_APPROVAL ( #23, ( #46 ) ) ;
#57 = CARTESIAN_POINT ( 'NONE',  ( 3.491481338843133355E-14, -1.276467311168695364E-15, 10.00000000000000000 ) ) ;
#58 = APPROVAL ( #4, 'UNSPECIFIED' ) ;
#59 = CARTESIAN_POINT ( 'NONE',  ( -3.741304549615519511E-31, 1.312272985780929536E-32, -1.071552211376035147E-16 ) ) ;
#60 = VERTEX_POINT ( 'NONE', #102 ) ;
#61 = AXIS2_PLACEMENT_3D ( 'NONE', #154, #223, #25 ) ;
#62 = MECHANICAL_CONTEXT ( 'NONE', #196, 'mechanical' ) ;
#63 = PERSON_AND_ORGANIZATION ( #217, #34 ) ;
#64 = DATE_TIME_ROLE ( 'classification_date' ) ;
#65 = AXIS2_PLACEMENT_3D ( 'NONE', #136, #170, #189 ) ;
#66 = EDGE_CURVE ( 'NONE', #195, #195, #212, .T. ) ;
#67 = EDGE_LOOP ( 'NONE', ( #12 ) ) ;
#68 = AXIS2_PLACEMENT_3D ( 'NONE', #97, #93, #122 ) ;
#69 = CC_DESIGN_DATE_AND_TIME_ASSIGNMENT ( #214, #64, ( #46 ) ) ;
#70 = FACE_OUTER_BOUND ( 'NONE', #134, .T. ) ;
#71 = DIRECTION ( 'NONE',  ( 3.491481338843133355E-15, -1.224646799147353207E-16, 1.000000000000000000 ) ) ;
#72 = MANIFOLD_SOLID_BREP ( 'Corps-Déplacer/Copier1[1]', #146 ) ;
#73 = CARTESIAN_POINT ( 'NONE',  ( 3.491481338843133355E-14, -1.276467311168695364E-15, 10.00000000000000000 ) ) ;
#74 = EDGE_CURVE ( 'NONE', #193, #193, #80, .T. ) ;
#75 = CC_DESIGN_APPROVAL ( #58, ( #133 ) ) ;
#76 = DIRECTION ( 'NONE',  ( -4.275831445896958607E-31, -1.000000000000000000, -1.224646799147353207E-16 ) ) ;
#77 = FACE_OUTER_BOUND ( 'NONE', #215, .T. ) ;
#78 = APPLICATION_PROTOCOL_DEFINITION ( 'international standard', 'config_control_design', 1994, #206 ) ;
#79 = EDGE_CURVE ( 'NONE', #176, #176, #203, .T. ) ;
#80 = CIRCLE ( 'NONE', #65, 1.650000000000001243 ) ;
#81 = PERSON_AND_ORGANIZATION_ROLE ( 'design_owner' ) ;
#82 = CARTESIAN_POINT ( 'NONE',  ( 2.082668618619928889E-13, 1.999999999999994005, 59.64999999999999147 ) ) ;
#83 = PERSON_AND_ORGANIZATION_ROLE ( 'creator' ) ;
#84 = EDGE_CURVE ( 'NONE', #197, #197, #10, .T. ) ;
#85 = AXIS2_PLACEMENT_3D ( 'NONE', #41, #44, #43 ) ;
#86 =( LENGTH_UNIT ( ) NAMED_UNIT ( * ) SI_UNIT ( .MILLI., .METRE. ) );
#87 = ORIENTED_EDGE ( 'NONE', *, *, #74, .T. ) ;
#88 = ORIENTED_EDGE ( 'NONE', *, *, #33, .F. ) ;
#89 = EDGE_LOOP ( 'NONE', ( #191 ) ) ;
#90 = DIRECTION ( 'NONE',  ( -3.491481338843133355E-15, 1.224646799147353207E-16, -1.000000000000000000 ) ) ;
#91 = AXIS2_PLACEMENT_3D ( 'NONE', #57, #169, #113 ) ;
#92 = UNCERTAINTY_MEASURE_WITH_UNIT (LENGTH_MEASURE( 1.000000000000000082E-05 ), #86, 'distance_accuracy_value', 'NONE');
#93 = DIRECTION ( 'NONE',  ( 3.491481338843133355E-15, -1.276467311168695266E-16, 1.000000000000000000 ) ) ;
#94 = CYLINDRICAL_SURFACE ( 'NONE', #61, 1.749999999999998002 ) ;
#95 = DESIGN_CONTEXT ( 'detailed design', #206, 'design' ) ;
#96 = CARTESIAN_POINT ( 'NONE',  ( 3.817240982599160822E-14, -1.395563332655754406E-15, 10.93301270189221341 ) ) ;
#97 = CARTESIAN_POINT ( 'NONE',  ( 1.000667421396370414E-13, -3.658387740909889804E-15, 28.66025403784433223 ) ) ;
#98 = COORDINATED_UNIVERSAL_TIME_OFFSET ( 1, 0, .AHEAD. ) ;
#99 = ADVANCED_FACE ( 'NONE', ( #138, #155 ), #114, .T. ) ;
#100 = SHAPE_DEFINITION_REPRESENTATION ( #37, #54 ) ;
#101 = LOCAL_TIME ( 9, 40, 20.00000000000000000, #117 ) ;
#102 = CARTESIAN_POINT ( 'NONE',  ( 3.491481338843133355E-14, -1.749999999999999778, 10.00000000000000000 ) ) ;
#103 = CARTESIAN_POINT ( 'NONE',  ( 3.491481338843133355E-14, -1.749999999999999778, 10.00000000000000000 ) ) ;
#104 = APPROVAL_DATE_TIME ( #20, #222 ) ;
#105 = CC_DESIGN_SECURITY_CLASSIFICATION ( #46, ( #202 ) ) ;
#106 = SECURITY_CLASSIFICATION_LEVEL ( 'unclassified' ) ;
#107 = EDGE_LOOP ( 'NONE', ( #120 ) ) ;
#108 = ORIENTED_EDGE ( 'NONE', *, *, #33, .T. ) ;
#109 = EDGE_LOOP ( 'NONE', ( #50 ) ) ;
#110 = DIRECTION ( 'NONE',  ( 4.275831445896957731E-31, 1.000000000000000000, 1.224646799147353207E-16 ) ) ;
#111 = CARTESIAN_POINT ( 'NONE',  ( 2.094888803305880013E-13, -7.347880794884118356E-15, 60.00000000000000000 ) ) ;
#112 = PLANE ( 'NONE',  #172 ) ;
#113 = DIRECTION ( 'NONE',  ( 0.0000000000000000000, -1.000000000000000000, 0.0000000000000000000 ) ) ;
#114 = CONICAL_SURFACE ( 'NONE', #68, 6.749999999999999112, 0.2617993877991501850 ) ;
#115 =( NAMED_UNIT ( * ) PLANE_ANGLE_UNIT ( ) SI_UNIT ( $, .RADIAN. ) );
#116 = VERTEX_POINT ( 'NONE', #21 ) ;
#117 = COORDINATED_UNIVERSAL_TIME_OFFSET ( 1, 0, .AHEAD. ) ;
#118 = PERSON_AND_ORGANIZATION ( #217, #34 ) ;
#119 = COORDINATED_UNIVERSAL_TIME_OFFSET ( 1, 0, .AHEAD. ) ;
#120 = ORIENTED_EDGE ( 'NONE', *, *, #45, .T. ) ;
#121 = CONICAL_SURFACE ( 'NONE', #132, 1.650000000000001243, 0.7853981633974439491 ) ;
#122 = DIRECTION ( 'NONE',  ( 0.0000000000000000000, -1.000000000000000000, 0.0000000000000000000 ) ) ;
#123 = PLANE ( 'NONE',  #28 ) ;
#124 = DIRECTION ( 'NONE',  ( 3.491481338843133355E-15, -1.224646799147353207E-16, 1.000000000000000000 ) ) ;
#125 = APPROVAL_PERSON_ORGANIZATION ( #118, #222, #179 ) ;
#126 = DIRECTION ( 'NONE',  ( 0.0000000000000000000, -1.000000000000000000, 0.0000000000000000000 ) ) ;
#127 = FACE_OUTER_BOUND ( 'NONE', #164, .T. ) ;
#128 = ADVANCED_FACE ( 'NONE', ( #139 ), #153, .T. ) ;
#129 = PERSON_AND_ORGANIZATION_ROLE ( 'design_supplier' ) ;
#130 = DATE_AND_TIME ( #198, #40 ) ;
#131 = APPROVAL_ROLE ( '' ) ;
#132 = AXIS2_PLACEMENT_3D ( 'NONE', #111, #90, #168 ) ;
#133 = PRODUCT_DEFINITION ( 'UNKNOWN', '', #202, #95 ) ;
#134 = EDGE_LOOP ( 'NONE', ( #88 ) ) ;
#135 = AXIS2_PLACEMENT_3D ( 'NONE', #16, #140, #55 ) ;
#136 = CARTESIAN_POINT ( 'NONE',  ( 2.094888803305880013E-13, -7.347880794884118356E-15, 60.00000000000000000 ) ) ;
#137 = CARTESIAN_POINT ( 'NONE',  ( 2.094888803305880013E-13, 1.237301820696022400E-32, 60.00000000000000000 ) ) ;
#138 = FACE_BOUND ( 'NONE', #109, .T. ) ;
#139 = FACE_OUTER_BOUND ( 'NONE', #107, .T. ) ;
#140 = DIRECTION ( 'NONE',  ( -3.491481338843133355E-15, 1.224646799147353207E-16, -1.000000000000000000 ) ) ;
#141 = COORDINATED_UNIVERSAL_TIME_OFFSET ( 1, 0, .AHEAD. ) ;
#142 = LOCAL_TIME ( 9, 40, 20.00000000000000000, #119 ) ;
#143 =( NAMED_UNIT ( * ) SI_UNIT ( $, .STERADIAN. ) SOLID_ANGLE_UNIT ( ) );
#144 = CC_DESIGN_DATE_AND_TIME_ASSIGNMENT ( #145, #199, ( #133 ) ) ;
#145 = DATE_AND_TIME ( #8, #101 ) ;
#146 = CLOSED_SHELL ( 'NONE', ( #183, #185, #3, #99, #161 ) ) ;
#147 = CALENDAR_DATE ( 2021, 8, 12 ) ;
#148 = CC_DESIGN_PERSON_AND_ORGANIZATION_ASSIGNMENT ( #173, #81, ( #7 ) ) ;
#149 = MANIFOLD_SOLID_BREP ( 'Corps-Déplacer/Copier1[2]', #167 ) ;
#150 = APPROVAL_PERSON_ORGANIZATION ( #26, #23, #131 ) ;
#151 = EDGE_LOOP ( 'NONE', ( #87 ) ) ;
#152 = CARTESIAN_POINT ( 'NONE',  ( 3.491481338843133355E-14, 1.499759782661852408E-32, 10.00000000000000000 ) ) ;
#153 = PLANE ( 'NONE',  #162 ) ;
#154 = CARTESIAN_POINT ( 'NONE',  ( -6.413839710158237013E-31, 0.0000000000000000000, -1.836996703606440502E-16 ) ) ;
#155 = FACE_OUTER_BOUND ( 'NONE', #89, .T. ) ;
#156 =( GEOMETRIC_REPRESENTATION_CONTEXT ( 3 ) GLOBAL_UNCERTAINTY_ASSIGNED_CONTEXT ( ( #92 ) ) GLOBAL_UNIT_ASSIGNED_CONTEXT ( ( #86, #115, #143 ) ) REPRESENTATION_CONTEXT ( 'NONE', 'WORKASPACE' ) );
#157 = DATE_AND_TIME ( #180, #142 ) ;
#158 = DIRECTION ( 'NONE',  ( -4.456761796588770537E-31, -1.000000000000000000, -1.276467311168695512E-16 ) ) ;
#159 = AXIS2_PLACEMENT_3D ( 'NONE', #96, #205, #126 ) ;
#160 = PERSON_AND_ORGANIZATION ( #217, #34 ) ;
#161 = ADVANCED_FACE ( 'NONE', ( #207 ), #208, .F. ) ;
#162 = AXIS2_PLACEMENT_3D ( 'NONE', #152, #221, #1 ) ;
#163 = PERSON_AND_ORGANIZATION ( #217, #34 ) ;
#164 = EDGE_LOOP ( 'NONE', ( #32 ) ) ;
#165 = FACE_OUTER_BOUND ( 'NONE', #67, .T. ) ;
#166 = CARTESIAN_POINT ( 'NONE',  ( 7.166076916608974059E-31, -4.964746472970739823E-32, 2.052446002470510143E-16 ) ) ;
#167 = CLOSED_SHELL ( 'NONE', ( #128, #216, #38 ) ) ;
#168 = DIRECTION ( 'NONE',  ( 0.0000000000000000000, 1.000000000000000000, 0.0000000000000000000 ) ) ;
#169 = DIRECTION ( 'NONE',  ( 3.491481338843133355E-15, -1.276467311168695266E-16, 1.000000000000000000 ) ) ;
#170 = DIRECTION ( 'NONE',  ( -3.491481338843133355E-15, 1.224646799147353207E-16, -1.000000000000000000 ) ) ;
#171 = CIRCLE ( 'NONE', #218, 1.749999999999997558 ) ;
#172 = AXIS2_PLACEMENT_3D ( 'NONE', #137, #2, #53 ) ;
#173 = PERSON_AND_ORGANIZATION ( #217, #34 ) ;
#174 = APPROVAL_ROLE ( '' ) ;
#175 = CARTESIAN_POINT ( 'NONE',  ( 2.094888803305880013E-13, 1.649999999999993916, 60.00000000000000000 ) ) ;
#176 = VERTEX_POINT ( 'NONE', #82 ) ;
#177 = APPROVAL_DATE_TIME ( #157, #23 ) ;
#178 = CC_DESIGN_PERSON_AND_ORGANIZATION_ASSIGNMENT ( #63, #83, ( #133 ) ) ;
#179 = APPROVAL_ROLE ( '' ) ;
#180 = CALENDAR_DATE ( 2021, 8, 12 ) ;
#181 = EDGE_LOOP ( 'NONE', ( #27 ) ) ;
#182 = CIRCLE ( 'NONE', #91, 1.749999999999998446 ) ;
#183 = ADVANCED_FACE ( 'NONE', ( #77, #127 ), #35, .T. ) ;
#184 = EDGE_LOOP ( 'NONE', ( #190 ) ) ;
#185 = ADVANCED_FACE ( 'NONE', ( #165, #15 ), #121, .T. ) ;
#186 = FACE_OUTER_BOUND ( 'NONE', #184, .T. ) ;
#187 = DIRECTION ( 'NONE',  ( 3.491481338843133355E-15, -1.276467311168695266E-16, 1.000000000000000000 ) ) ;
#188 = APPROVAL_PERSON_ORGANIZATION ( #22, #58, #174 ) ;
#189 = DIRECTION ( 'NONE',  ( 0.0000000000000000000, 1.000000000000000000, 0.0000000000000000000 ) ) ;
#190 = ORIENTED_EDGE ( 'NONE', *, *, #74, .F. ) ;
#191 = ORIENTED_EDGE ( 'NONE', *, *, #66, .T. ) ;
#192 = LOCAL_TIME ( 9, 40, 20.00000000000000000, #11 ) ;
#193 = VERTEX_POINT ( 'NONE', #175 ) ;
#194 = AXIS2_PLACEMENT_3D ( 'NONE', #36, #124, #76 ) ;
#195 = VERTEX_POINT ( 'NONE', #24 ) ;
#196 = APPLICATION_CONTEXT ( 'configuration controlled 3d designs of mechanical parts and assemblies' ) ;
#197 = VERTEX_POINT ( 'NONE', #103 ) ;
#198 = CALENDAR_DATE ( 2021, 8, 12 ) ;
#199 = DATE_TIME_ROLE ( 'creation_date' ) ;
#200 = APPROVAL_STATUS ( 'not_yet_approved' ) ;
#201 = CC_DESIGN_PERSON_AND_ORGANIZATION_ASSIGNMENT ( #163, #49, ( #46 ) ) ;
#202 = PRODUCT_DEFINITION_FORMATION_WITH_SPECIFIED_SOURCE ( 'ANY', '', #7, .NOT_KNOWN. ) ;
#203 = CIRCLE ( 'NONE', #135, 2.000000000000001332 ) ;
#204 = ORIENTED_EDGE ( 'NONE', *, *, #45, .F. ) ;
#205 = DIRECTION ( 'NONE',  ( -3.491481338843133355E-15, 1.276467311168695266E-16, -1.000000000000000000 ) ) ;
#206 = APPLICATION_CONTEXT ( 'configuration controlled 3d designs of mechanical parts and assemblies' ) ;
#207 = FACE_OUTER_BOUND ( 'NONE', #181, .T. ) ;
#208 = PLANE ( 'NONE',  #194 ) ;
#209 = CC_DESIGN_PERSON_AND_ORGANIZATION_ASSIGNMENT ( #160, #9, ( #202 ) ) ;
#210 = DIRECTION ( 'NONE',  ( -3.491481338843133355E-15, 1.224646799147353207E-16, -1.000000000000000000 ) ) ;
#211 = PERSON_AND_ORGANIZATION ( #217, #34 ) ;
#212 = CIRCLE ( 'NONE', #159, 1.999999999999998224 ) ;
#213 = APPROVAL_STATUS ( 'not_yet_approved' ) ;
#214 = DATE_AND_TIME ( #147, #192 ) ;
#215 = EDGE_LOOP ( 'NONE', ( #31 ) ) ;
#216 = ADVANCED_FACE ( 'NONE', ( #220, #17 ), #94, .T. ) ;
#217 = PERSON ( 'UNSPECIFIED', 'UNSPECIFIED', 'UNSPECIFIED', ('UNSPECIFIED'), ('UNSPECIFIED'), ('UNSPECIFIED') ) ;
#218 = AXIS2_PLACEMENT_3D ( 'NONE', #166, #18, #158 ) ;
#219 = AXIS2_PLACEMENT_3D ( 'NONE', #51, #210, #110 ) ;
#220 = FACE_OUTER_BOUND ( 'NONE', #14, .T. ) ;
#221 = DIRECTION ( 'NONE',  ( 3.491481338843133355E-15, -1.224646799147353207E-16, 1.000000000000000000 ) ) ;
#222 = APPROVAL ( #213, 'UNSPECIFIED' ) ;
#223 = DIRECTION ( 'NONE',  ( 3.491481338843133355E-15, -1.276467311168695266E-16, 1.000000000000000000 ) ) ;
ENDSEC;
END-ISO-10303-21;
