ISO-10303-21;
HEADER;
FILE_DESCRIPTION (( 'STEP AP203' ),
    '1' );
FILE_NAME ('372594.step',
    '2021-12-08T08:40:20',
    ( '' ),
    ( '' ),
    'SwSTEP 2.0',
    'SolidWorks 2019',
    '' );
FILE_SCHEMA (( 'CONFIG_CONTROL_DESIGN' ));
ENDSEC;

DATA;
#1 = VERTEX_POINT ( 'NONE', #95 ) ;
#2 = DIRECTION ( 'NONE',  ( 3.491481338843133355E-15, -1.224646799147353207E-16, 1.000000000000000000 ) ) ;
#3 = EDGE_CURVE ( 'NONE', #1, #1, #157, .T. ) ;
#4 = APPROVAL_ROLE ( '' ) ;
#5 = AXIS2_PLACEMENT_3D ( 'NONE', #37, #180, #82 ) ;
#6 = PERSON_AND_ORGANIZATION ( #86, #163 ) ;
#7 = CALENDAR_DATE ( 2021, 8, 12 ) ;
#8 = EDGE_LOOP ( 'NONE', ( #103 ) ) ;
#9 = DIRECTION ( 'NONE',  ( -3.491481338843133355E-15, 1.224646799147353207E-16, -1.000000000000000000 ) ) ;
#10 = CC_DESIGN_PERSON_AND_ORGANIZATION_ASSIGNMENT ( #51, #67, ( #145 ) ) ;
#11 = EDGE_LOOP ( 'NONE', ( #196 ) ) ;
#12 = DIRECTION ( 'NONE',  ( -3.491481338843133355E-15, 1.224646799147353207E-16, -1.000000000000000000 ) ) ;
#13 = CYLINDRICAL_SURFACE ( 'NONE', #55, 1.749999999999996447 ) ;
#14 = DIRECTION ( 'NONE',  ( -3.491481338843133355E-15, 1.224646799147353207E-16, -1.000000000000000000 ) ) ;
#15 = FACE_OUTER_BOUND ( 'NONE', #170, .T. ) ;
#16 =( GEOMETRIC_REPRESENTATION_CONTEXT ( 3 ) GLOBAL_UNCERTAINTY_ASSIGNED_CONTEXT ( ( #105 ) ) GLOBAL_UNIT_ASSIGNED_CONTEXT ( ( #176, #33, #130 ) ) REPRESENTATION_CONTEXT ( 'NONE', 'WORKASPACE' ) );
#17 = CARTESIAN_POINT ( 'NONE',  ( 1.745740669421566678E-13, -6.123233995736766085E-15, 50.00000000000000000 ) ) ;
#18 = APPLICATION_PROTOCOL_DEFINITION ( 'international standard', 'config_control_design', 1994, #114 ) ;
#19 = PERSON_AND_ORGANIZATION ( #86, #163 ) ;
#20 = APPROVAL_DATE_TIME ( #162, #21 ) ;
#21 = APPROVAL ( #100, 'UNSPECIFIED' ) ;
#22 = COORDINATED_UNIVERSAL_TIME_OFFSET ( 1, 0, .AHEAD. ) ;
#23 = PERSON_AND_ORGANIZATION_ROLE ( 'classification_officer' ) ;
#24 = AXIS2_PLACEMENT_3D ( 'NONE', #150, #9, #74 ) ;
#25 = CIRCLE ( 'NONE', #177, 1.749999999999994227 ) ;
#26 = PRODUCT_DEFINITION_FORMATION_WITH_SPECIFIED_SOURCE ( 'ANY', '', #145, .NOT_KNOWN. ) ;
#27 = FACE_OUTER_BOUND ( 'NONE', #149, .T. ) ;
#28 = CC_DESIGN_PERSON_AND_ORGANIZATION_ASSIGNMENT ( #143, #49, ( #26 ) ) ;
#29 = DIRECTION ( 'NONE',  ( 4.275831445896958607E-31, 1.000000000000000000, 1.224646799147353207E-16 ) ) ;
#30 = CARTESIAN_POINT ( 'NONE',  ( -6.413755949713147697E-31, 2.249642753906579886E-32, -1.836972713661497156E-16 ) ) ;
#31 = DIRECTION ( 'NONE',  ( -3.491481338843133355E-15, 1.224646799147353207E-16, -1.000000000000000000 ) ) ;
#32 = LOCAL_TIME ( 9, 40, 20.00000000000000000, #112 ) ;
#33 =( NAMED_UNIT ( * ) PLANE_ANGLE_UNIT ( ) SI_UNIT ( $, .RADIAN. ) );
#34 = CIRCLE ( 'NONE', #91, 1.749999999999998668 ) ;
#35 = CALENDAR_DATE ( 2021, 8, 12 ) ;
#36 = APPROVAL_ROLE ( '' ) ;
#37 = CARTESIAN_POINT ( 'NONE',  ( 0.0000000000000000000, 0.0000000000000000000, 0.0000000000000000000 ) ) ;
#38 = ORIENTED_EDGE ( 'NONE', *, *, #147, .T. ) ;
#39 = DIRECTION ( 'NONE',  ( 0.0000000000000000000, 1.000000000000000000, 0.0000000000000000000 ) ) ;
#40 = ADVANCED_FACE ( 'NONE', ( #156 ), #63, .T. ) ;
#41 = CARTESIAN_POINT ( 'NONE',  ( -5.344806869106648924E-31, 1.749999999999992673, -1.530813528815135136E-16 ) ) ;
#42 = CARTESIAN_POINT ( 'NONE',  ( -1.282751189942629539E-30, 4.499285507813159771E-32, -3.673945427322994312E-16 ) ) ;
#43 = CC_DESIGN_APPROVAL ( #21, ( #115 ) ) ;
#44 = FACE_BOUND ( 'NONE', #195, .T. ) ;
#45 = ADVANCED_FACE ( 'NONE', ( #127, #44 ), #167, .T. ) ;
#46 = APPROVAL_DATE_TIME ( #70, #169 ) ;
#47 = CLOSED_SHELL ( 'NONE', ( #83, #57, #45, #171 ) ) ;
#48 = PERSON_AND_ORGANIZATION ( #86, #163 ) ;
#49 = PERSON_AND_ORGANIZATION_ROLE ( 'design_supplier' ) ;
#50 = ADVANCED_FACE ( 'NONE', ( #27 ), #123, .F. ) ;
#51 = PERSON_AND_ORGANIZATION ( #86, #163 ) ;
#52 = LOCAL_TIME ( 9, 40, 20.00000000000000000, #53 ) ;
#53 = COORDINATED_UNIVERSAL_TIME_OFFSET ( 1, 0, .AHEAD. ) ;
#54 = EDGE_LOOP ( 'NONE', ( #183 ) ) ;
#55 = AXIS2_PLACEMENT_3D ( 'NONE', #79, #12, #94 ) ;
#56 = ORIENTED_EDGE ( 'NONE', *, *, #78, .F. ) ;
#57 = ADVANCED_FACE ( 'NONE', ( #175, #187 ), #13, .T. ) ;
#58 = ORIENTED_EDGE ( 'NONE', *, *, #78, .T. ) ;
#59 = APPROVAL_PERSON_ORGANIZATION ( #181, #68, #36 ) ;
#60 = CC_DESIGN_PERSON_AND_ORGANIZATION_ASSIGNMENT ( #48, #164, ( #26 ) ) ;
#61 = VERTEX_POINT ( 'NONE', #66 ) ;
#62 = DIRECTION ( 'NONE',  ( -3.491481338843133355E-15, 1.224646799147353207E-16, -1.000000000000000000 ) ) ;
#63 = PLANE ( 'NONE',  #69 ) ;
#64 = CC_DESIGN_APPROVAL ( #68, ( #26 ) ) ;
#65 = VERTEX_POINT ( 'NONE', #41 ) ;
#66 = CARTESIAN_POINT ( 'NONE',  ( 4.189777606611760026E-14, 1.749999999999992673, 12.00000000000000000 ) ) ;
#67 = PERSON_AND_ORGANIZATION_ROLE ( 'design_owner' ) ;
#68 = APPROVAL ( #190, 'UNSPECIFIED' ) ;
#69 = AXIS2_PLACEMENT_3D ( 'NONE', #122, #76, #141 ) ;
#70 = DATE_AND_TIME ( #99, #85 ) ;
#71 = CC_DESIGN_PERSON_AND_ORGANIZATION_ASSIGNMENT ( #19, #191, ( #134 ) ) ;
#72 = SHAPE_DEFINITION_REPRESENTATION ( #125, #81 ) ;
#73 = CC_DESIGN_SECURITY_CLASSIFICATION ( #115, ( #26 ) ) ;
#74 = DIRECTION ( 'NONE',  ( 0.0000000000000000000, 1.000000000000000000, 0.0000000000000000000 ) ) ;
#75 = AXIS2_PLACEMENT_3D ( 'NONE', #17, #189, #173 ) ;
#76 = DIRECTION ( 'NONE',  ( 3.491481338843133355E-15, -1.224646799147353207E-16, 1.000000000000000000 ) ) ;
#77 = DIRECTION ( 'NONE',  ( 4.275831445896957731E-31, 1.000000000000000000, 1.224646799147353207E-16 ) ) ;
#78 = EDGE_CURVE ( 'NONE', #61, #61, #158, .T. ) ;
#79 = CARTESIAN_POINT ( 'NONE',  ( 0.0000000000000000000, 0.0000000000000000000, 0.0000000000000000000 ) ) ;
#80 = DIRECTION ( 'NONE',  ( -3.491481338843133355E-15, 1.224646799147353207E-16, -1.000000000000000000 ) ) ;
#81 = ADVANCED_BREP_SHAPE_REPRESENTATION ( '372594', ( #93, #160, #5 ), #16 ) ;
#82 = DIRECTION ( 'NONE',  ( 1.000000000000000000, 0.0000000000000000000, 0.0000000000000000000 ) ) ;
#83 = ADVANCED_FACE ( 'NONE', ( #152 ), #154, .F. ) ;
#84 = APPROVAL_DATE_TIME ( #101, #68 ) ;
#85 = LOCAL_TIME ( 9, 40, 20.00000000000000000, #22 ) ;
#86 = PERSON ( 'UNSPECIFIED', 'UNSPECIFIED', 'UNSPECIFIED', ('UNSPECIFIED'), ('UNSPECIFIED'), ('UNSPECIFIED') ) ;
#87 = CC_DESIGN_DATE_AND_TIME_ASSIGNMENT ( #193, #89, ( #115 ) ) ;
#88 = DATE_TIME_ROLE ( 'creation_date' ) ;
#89 = DATE_TIME_ROLE ( 'classification_date' ) ;
#90 = ORIENTED_EDGE ( 'NONE', *, *, #121, .T. ) ;
#91 = AXIS2_PLACEMENT_3D ( 'NONE', #155, #138, #120 ) ;
#92 = DIRECTION ( 'NONE',  ( -3.491481338843133355E-15, 1.224646799147353207E-16, -1.000000000000000000 ) ) ;
#93 = MANIFOLD_SOLID_BREP ( 'Corps-Déplacer/Copier1[1]', #47 ) ;
#94 = DIRECTION ( 'NONE',  ( 4.275831445896958607E-31, 1.000000000000000000, 1.224646799147353207E-16 ) ) ;
#95 = CARTESIAN_POINT ( 'NONE',  ( 1.745740669421566678E-13, 1.399999999999992806, 50.00000000000000000 ) ) ;
#96 = CARTESIAN_POINT ( 'NONE',  ( 4.189777606611760026E-14, -1.469576158976823947E-15, 12.00000000000000000 ) ) ;
#97 = DIRECTION ( 'NONE',  ( 3.491481338843133355E-15, -1.224646799147353207E-16, 1.000000000000000000 ) ) ;
#98 = SECURITY_CLASSIFICATION_LEVEL ( 'unclassified' ) ;
#99 = CALENDAR_DATE ( 2021, 8, 12 ) ;
#100 = APPROVAL_STATUS ( 'not_yet_approved' ) ;
#101 = DATE_AND_TIME ( #113, #52 ) ;
#102 = COORDINATED_UNIVERSAL_TIME_OFFSET ( 1, 0, .AHEAD. ) ;
#103 = ORIENTED_EDGE ( 'NONE', *, *, #110, .F. ) ;
#104 = LOCAL_TIME ( 9, 40, 20.00000000000000000, #132 ) ;
#105 = UNCERTAINTY_MEASURE_WITH_UNIT (LENGTH_MEASURE( 1.000000000000000082E-05 ), #176, 'distance_accuracy_value', 'NONE');
#106 = FACE_OUTER_BOUND ( 'NONE', #117, .T. ) ;
#107 = FACE_OUTER_BOUND ( 'NONE', #118, .T. ) ;
#108 = CARTESIAN_POINT ( 'NONE',  ( 4.189777606611760026E-14, -1.469576158976823947E-15, 12.00000000000000000 ) ) ;
#109 = DIRECTION ( 'NONE',  ( -4.275831445896958607E-31, -1.000000000000000000, -1.224646799147353207E-16 ) ) ;
#110 = EDGE_CURVE ( 'NONE', #172, #172, #34, .T. ) ;
#111 = AXIS2_PLACEMENT_3D ( 'NONE', #140, #92, #77 ) ;
#112 = COORDINATED_UNIVERSAL_TIME_OFFSET ( 1, 0, .AHEAD. ) ;
#113 = CALENDAR_DATE ( 2021, 8, 12 ) ;
#114 = APPLICATION_CONTEXT ( 'configuration controlled 3d designs of mechanical parts and assemblies' ) ;
#115 = SECURITY_CLASSIFICATION ( '', '', #98 ) ;
#116 = ORIENTED_EDGE ( 'NONE', *, *, #3, .T. ) ;
#117 = EDGE_LOOP ( 'NONE', ( #197 ) ) ;
#118 = EDGE_LOOP ( 'NONE', ( #182 ) ) ;
#119 = AXIS2_PLACEMENT_3D ( 'NONE', #42, #31, #153 ) ;
#120 = DIRECTION ( 'NONE',  ( 0.0000000000000000000, 1.000000000000000000, 0.0000000000000000000 ) ) ;
#121 = EDGE_CURVE ( 'NONE', #65, #65, #148, .T. ) ;
#122 = CARTESIAN_POINT ( 'NONE',  ( 4.189777606611760026E-14, 1.312289809829119112E-32, 12.00000000000000000 ) ) ;
#123 = PLANE ( 'NONE',  #133 ) ;
#124 = APPROVAL_PERSON_ORGANIZATION ( #6, #21, #146 ) ;
#125 = PRODUCT_DEFINITION_SHAPE ( 'NONE', 'NONE',  #134 ) ;
#126 = CARTESIAN_POINT ( 'NONE',  ( 4.189777606611760026E-14, 1.749999999999992673, 12.00000000000000000 ) ) ;
#127 = FACE_OUTER_BOUND ( 'NONE', #8, .T. ) ;
#128 = DATE_AND_TIME ( #159, #135 ) ;
#129 = APPROVAL_STATUS ( 'not_yet_approved' ) ;
#130 =( NAMED_UNIT ( * ) SI_UNIT ( $, .STERADIAN. ) SOLID_ANGLE_UNIT ( ) );
#131 = ADVANCED_FACE ( 'NONE', ( #107, #15 ), #201, .T. ) ;
#132 = COORDINATED_UNIVERSAL_TIME_OFFSET ( 1, 0, .AHEAD. ) ;
#133 = AXIS2_PLACEMENT_3D ( 'NONE', #30, #97, #200 ) ;
#134 = PRODUCT_DEFINITION ( 'UNKNOWN', '', #26, #136 ) ;
#135 = LOCAL_TIME ( 9, 40, 20.00000000000000000, #102 ) ;
#136 = DESIGN_CONTEXT ( 'detailed design', #114, 'design' ) ;
#137 = CARTESIAN_POINT ( 'NONE',  ( 4.189777606611760026E-14, 1.312289809829119112E-32, 12.00000000000000000 ) ) ;
#138 = DIRECTION ( 'NONE',  ( -3.491481338843133355E-15, 1.224646799147353207E-16, -1.000000000000000000 ) ) ;
#139 = CARTESIAN_POINT ( 'NONE',  ( 1.733520484735615553E-13, 1.749999999999992673, 49.64999999999999858 ) ) ;
#140 = CARTESIAN_POINT ( 'NONE',  ( 0.0000000000000000000, 0.0000000000000000000, 0.0000000000000000000 ) ) ;
#141 = DIRECTION ( 'NONE',  ( -4.275831445896958607E-31, -1.000000000000000000, -1.224646799147353207E-16 ) ) ;
#142 = PERSON_AND_ORGANIZATION ( #86, #163 ) ;
#143 = PERSON_AND_ORGANIZATION ( #86, #163 ) ;
#144 = AXIS2_PLACEMENT_3D ( 'NONE', #96, #80, #39 ) ;
#145 = PRODUCT ( '372594', '372594', '', ( #192 ) ) ;
#146 = APPROVAL_ROLE ( '' ) ;
#147 = EDGE_CURVE ( 'NONE', #203, #203, #25, .T. ) ;
#148 = CIRCLE ( 'NONE', #119, 1.749999999999992673 ) ;
#149 = EDGE_LOOP ( 'NONE', ( #90 ) ) ;
#150 = CARTESIAN_POINT ( 'NONE',  ( 1.745740669421566678E-13, -6.123233995736766085E-15, 50.00000000000000000 ) ) ;
#151 = CC_DESIGN_APPROVAL ( #169, ( #134 ) ) ;
#152 = FACE_OUTER_BOUND ( 'NONE', #185, .T. ) ;
#153 = DIRECTION ( 'NONE',  ( 4.275831445896958607E-31, 1.000000000000000000, 1.224646799147353207E-16 ) ) ;
#154 = PLANE ( 'NONE',  #199 ) ;
#155 = CARTESIAN_POINT ( 'NONE',  ( 1.733520484735615553E-13, -6.080371357766608941E-15, 49.64999999999999858 ) ) ;
#156 = FACE_OUTER_BOUND ( 'NONE', #168, .T. ) ;
#157 = CIRCLE ( 'NONE', #24, 1.399999999999998801 ) ;
#158 = CIRCLE ( 'NONE', #144, 1.749999999999994227 ) ;
#159 = CALENDAR_DATE ( 2021, 8, 12 ) ;
#160 = MANIFOLD_SOLID_BREP ( 'Corps-Déplacer/Copier1[2]', #198 ) ;
#161 = CC_DESIGN_PERSON_AND_ORGANIZATION_ASSIGNMENT ( #165, #23, ( #115 ) ) ;
#162 = DATE_AND_TIME ( #7, #104 ) ;
#163 = ORGANIZATION ( 'UNSPECIFIED', 'UNSPECIFIED', '' ) ;
#164 = PERSON_AND_ORGANIZATION_ROLE ( 'creator' ) ;
#165 = PERSON_AND_ORGANIZATION ( #86, #163 ) ;
#166 = APPROVAL_PERSON_ORGANIZATION ( #142, #169, #4 ) ;
#167 = CONICAL_SURFACE ( 'NONE', #75, 1.399999999999998801, 0.7853981633974437271 ) ;
#168 = EDGE_LOOP ( 'NONE', ( #56 ) ) ;
#169 = APPROVAL ( #129, 'UNSPECIFIED' ) ;
#170 = EDGE_LOOP ( 'NONE', ( #58 ) ) ;
#171 = ADVANCED_FACE ( 'NONE', ( #106 ), #174, .F. ) ;
#172 = VERTEX_POINT ( 'NONE', #139 ) ;
#173 = DIRECTION ( 'NONE',  ( 0.0000000000000000000, 1.000000000000000000, 0.0000000000000000000 ) ) ;
#174 = PLANE ( 'NONE',  #184 ) ;
#175 = FACE_OUTER_BOUND ( 'NONE', #11, .T. ) ;
#176 =( LENGTH_UNIT ( ) NAMED_UNIT ( * ) SI_UNIT ( .MILLI., .METRE. ) );
#177 = AXIS2_PLACEMENT_3D ( 'NONE', #108, #62, #188 ) ;
#178 = APPLICATION_PROTOCOL_DEFINITION ( 'international standard', 'config_control_design', 1994, #179 ) ;
#179 = APPLICATION_CONTEXT ( 'configuration controlled 3d designs of mechanical parts and assemblies' ) ;
#180 = DIRECTION ( 'NONE',  ( 0.0000000000000000000, 0.0000000000000000000, 1.000000000000000000 ) ) ;
#181 = PERSON_AND_ORGANIZATION ( #86, #163 ) ;
#182 = ORIENTED_EDGE ( 'NONE', *, *, #121, .F. ) ;
#183 = ORIENTED_EDGE ( 'NONE', *, *, #110, .T. ) ;
#184 = AXIS2_PLACEMENT_3D ( 'NONE', #186, #14, #29 ) ;
#185 = EDGE_LOOP ( 'NONE', ( #38 ) ) ;
#186 = CARTESIAN_POINT ( 'NONE',  ( 1.745740669421566678E-13, 1.049831847863290473E-32, 50.00000000000000000 ) ) ;
#187 = FACE_OUTER_BOUND ( 'NONE', #54, .T. ) ;
#188 = DIRECTION ( 'NONE',  ( 0.0000000000000000000, 1.000000000000000000, 0.0000000000000000000 ) ) ;
#189 = DIRECTION ( 'NONE',  ( -3.491481338843133355E-15, 1.224646799147353207E-16, -1.000000000000000000 ) ) ;
#190 = APPROVAL_STATUS ( 'not_yet_approved' ) ;
#191 = PERSON_AND_ORGANIZATION_ROLE ( 'creator' ) ;
#192 = MECHANICAL_CONTEXT ( 'NONE', #179, 'mechanical' ) ;
#193 = DATE_AND_TIME ( #35, #32 ) ;
#194 = PRODUCT_RELATED_PRODUCT_CATEGORY ( 'detail', '', ( #145 ) ) ;
#195 = EDGE_LOOP ( 'NONE', ( #116 ) ) ;
#196 = ORIENTED_EDGE ( 'NONE', *, *, #147, .F. ) ;
#197 = ORIENTED_EDGE ( 'NONE', *, *, #3, .F. ) ;
#198 = CLOSED_SHELL ( 'NONE', ( #50, #131, #40 ) ) ;
#199 = AXIS2_PLACEMENT_3D ( 'NONE', #137, #2, #109 ) ;
#200 = DIRECTION ( 'NONE',  ( -4.275831445896958607E-31, -1.000000000000000000, -1.224646799147353207E-16 ) ) ;
#201 = CYLINDRICAL_SURFACE ( 'NONE', #111, 1.749999999999993339 ) ;
#202 = CC_DESIGN_DATE_AND_TIME_ASSIGNMENT ( #128, #88, ( #134 ) ) ;
#203 = VERTEX_POINT ( 'NONE', #126 ) ;
ENDSEC;
END-ISO-10303-21;
