ISO-10303-21;
HEADER;
FILE_DESCRIPTION (( 'STEP AP203' ),
    '1' );
FILE_NAME ('372593.step',
    '2021-12-08T08:40:19',
    ( '' ),
    ( '' ),
    'SwSTEP 2.0',
    'SolidWorks 2019',
    '' );
FILE_SCHEMA (( 'CONFIG_CONTROL_DESIGN' ));
ENDSEC;

DATA;
#1 = UNCERTAINTY_MEASURE_WITH_UNIT (LENGTH_MEASURE( 1.000000000000000082E-05 ), #28, 'distance_accuracy_value', 'NONE');
#2 = APPROVAL ( #218, 'UNSPECIFIED' ) ;
#3 = ORIENTED_EDGE ( 'NONE', *, *, #141, .T. ) ;
#4 = DIRECTION ( 'NONE',  ( 0.0000000000000000000, 1.000000000000000000, 0.0000000000000000000 ) ) ;
#5 = AXIS2_PLACEMENT_3D ( 'NONE', #19, #53, #165 ) ;
#6 = CARTESIAN_POINT ( 'NONE',  ( 6.982962677686266711E-14, -1.500000000000001332, 20.00000000000000000 ) ) ;
#7 = VERTEX_POINT ( 'NONE', #75 ) ;
#8 = DIRECTION ( 'NONE',  ( 0.0000000000000000000, -1.000000000000000000, 0.0000000000000000000 ) ) ;
#9 = DIRECTION ( 'NONE',  ( -4.275831445896958607E-31, -1.000000000000000000, -1.224646799147353207E-16 ) ) ;
#10 = DIRECTION ( 'NONE',  ( 1.000000000000000000, 0.0000000000000000000, 0.0000000000000000000 ) ) ;
#11 = DATE_AND_TIME ( #184, #205 ) ;
#12 = DATE_TIME_ROLE ( 'creation_date' ) ;
#13 = APPROVAL_STATUS ( 'not_yet_approved' ) ;
#14 = EDGE_LOOP ( 'NONE', ( #156 ) ) ;
#15 = EDGE_LOOP ( 'NONE', ( #68 ) ) ;
#16 = ORIENTED_EDGE ( 'NONE', *, *, #141, .F. ) ;
#17 = EDGE_LOOP ( 'NONE', ( #89 ) ) ;
#18 = APPROVAL ( #29, 'UNSPECIFIED' ) ;
#19 = CARTESIAN_POINT ( 'NONE',  ( 2.094888803305880013E-13, 2.024675706593497918E-32, 60.00000000000000000 ) ) ;
#20 = FACE_OUTER_BOUND ( 'NONE', #223, .T. ) ;
#21 = DIRECTION ( 'NONE',  ( 0.0000000000000000000, -1.000000000000000000, 0.0000000000000000000 ) ) ;
#22 = AXIS2_PLACEMENT_3D ( 'NONE', #39, #78, #21 ) ;
#23 = VERTEX_POINT ( 'NONE', #131 ) ;
#24 = PLANE ( 'NONE',  #60 ) ;
#25 = APPROVAL_ROLE ( '' ) ;
#26 = MANIFOLD_SOLID_BREP ( 'Corps-Déplacer/Copier1[1]', #91 ) ;
#27 = COORDINATED_UNIVERSAL_TIME_OFFSET ( 1, 0, .AHEAD. ) ;
#28 =( LENGTH_UNIT ( ) NAMED_UNIT ( * ) SI_UNIT ( .MILLI., .METRE. ) );
#29 = APPROVAL_STATUS ( 'not_yet_approved' ) ;
#30 = CC_DESIGN_APPROVAL ( #199, ( #66 ) ) ;
#31 = APPROVAL_ROLE ( '' ) ;
#32 = AXIS2_PLACEMENT_3D ( 'NONE', #167, #168, #114 ) ;
#33 = APPLICATION_CONTEXT ( 'configuration controlled 3d designs of mechanical parts and assemblies' ) ;
#34 = DIRECTION ( 'NONE',  ( 3.491481338843133355E-15, -1.276467311168695266E-16, 1.000000000000000000 ) ) ;
#35 = ADVANCED_FACE ( 'NONE', ( #204 ), #70, .F. ) ;
#36 = ORIENTED_EDGE ( 'NONE', *, *, #173, .F. ) ;
#37 = FACE_BOUND ( 'NONE', #159, .T. ) ;
#38 = CARTESIAN_POINT ( 'NONE',  ( 2.084414359289350550E-13, -7.311141390909697496E-15, 59.69999999999999574 ) ) ;
#39 = CARTESIAN_POINT ( 'NONE',  ( 6.982962677686266711E-14, -2.552934622337390728E-15, 20.00000000000000000 ) ) ;
#40 = PRODUCT_DEFINITION ( 'UNKNOWN', '', #66, #203 ) ;
#41 = DIRECTION ( 'NONE',  ( -3.491481338843133355E-15, 1.224646799147353207E-16, -1.000000000000000000 ) ) ;
#42 = DIRECTION ( 'NONE',  ( -4.456761796588770537E-31, -1.000000000000000000, -1.276467311168695512E-16 ) ) ;
#43 = APPROVAL_ROLE ( '' ) ;
#44 = COORDINATED_UNIVERSAL_TIME_OFFSET ( 1, 0, .AHEAD. ) ;
#45 = COORDINATED_UNIVERSAL_TIME_OFFSET ( 1, 0, .AHEAD. ) ;
#46 = CIRCLE ( 'NONE', #201, 1.499999999999998668 ) ;
#47 = EDGE_CURVE ( 'NONE', #210, #210, #46, .T. ) ;
#48 =( GEOMETRIC_REPRESENTATION_CONTEXT ( 3 ) GLOBAL_UNCERTAINTY_ASSIGNED_CONTEXT ( ( #1 ) ) GLOBAL_UNIT_ASSIGNED_CONTEXT ( ( #28, #63, #64 ) ) REPRESENTATION_CONTEXT ( 'NONE', 'WORKASPACE' ) );
#49 = EDGE_LOOP ( 'NONE', ( #220 ) ) ;
#50 = ORIENTED_EDGE ( 'NONE', *, *, #47, .F. ) ;
#51 = ADVANCED_FACE ( 'NONE', ( #110, #93 ), #94, .T. ) ;
#52 = EDGE_LOOP ( 'NONE', ( #3 ) ) ;
#53 = DIRECTION ( 'NONE',  ( -3.491481338843133355E-15, 1.224646799147353207E-16, -1.000000000000000000 ) ) ;
#54 = DIRECTION ( 'NONE',  ( 3.491481338843133355E-15, -1.224646799147353207E-16, 1.000000000000000000 ) ) ;
#55 = ADVANCED_FACE ( 'NONE', ( #98, #193 ), #118, .T. ) ;
#56 = FACE_BOUND ( 'NONE', #206, .T. ) ;
#57 = CARTESIAN_POINT ( 'NONE',  ( -3.368048475777683653E-30, -1.499999999999998668, -9.646474229456005827E-16 ) ) ;
#58 = DIRECTION ( 'NONE',  ( -3.491481338843133355E-15, 1.276467311168695266E-16, -1.000000000000000000 ) ) ;
#59 = PERSON_AND_ORGANIZATION ( #96, #92 ) ;
#60 = AXIS2_PLACEMENT_3D ( 'NONE', #208, #54, #9 ) ;
#61 = APPROVAL_PERSON_ORGANIZATION ( #172, #199, #31 ) ;
#62 = COORDINATED_UNIVERSAL_TIME_OFFSET ( 1, 0, .AHEAD. ) ;
#63 =( NAMED_UNIT ( * ) PLANE_ANGLE_UNIT ( ) SI_UNIT ( $, .RADIAN. ) );
#64 =( NAMED_UNIT ( * ) SI_UNIT ( $, .STERADIAN. ) SOLID_ANGLE_UNIT ( ) );
#65 = CIRCLE ( 'NONE', #87, 2.999999999999999112 ) ;
#66 = PRODUCT_DEFINITION_FORMATION_WITH_SPECIFIED_SOURCE ( 'ANY', '', #67, .NOT_KNOWN. ) ;
#67 = PRODUCT ( '372593', '372593', '', ( #81 ) ) ;
#68 = ORIENTED_EDGE ( 'NONE', *, *, #145, .F. ) ;
#69 = PRODUCT_DEFINITION_SHAPE ( 'NONE', 'NONE',  #40 ) ;
#70 = PLANE ( 'NONE',  #147 ) ;
#71 = ORIENTED_EDGE ( 'NONE', *, *, #173, .T. ) ;
#72 = DIRECTION ( 'NONE',  ( -4.275831445896958607E-31, -1.000000000000000000, -1.224646799147353207E-16 ) ) ;
#73 = CONICAL_SURFACE ( 'NONE', #84, 6.500000000000000000, 0.2617993877991502405 ) ;
#74 = CARTESIAN_POINT ( 'NONE',  ( 8.937520540222437820E-14, -3.000000000000002665, 25.59807621135330180 ) ) ;
#75 = CARTESIAN_POINT ( 'NONE',  ( 2.084414359289350550E-13, 2.999999999999993783, 59.69999999999999574 ) ) ;
#76 = PLANE ( 'NONE',  #148 ) ;
#77 = LOCAL_TIME ( 9, 40, 19.00000000000000000, #45 ) ;
#78 = DIRECTION ( 'NONE',  ( 3.491481338843133355E-15, -1.276467311168695266E-16, 1.000000000000000000 ) ) ;
#79 = CONICAL_SURFACE ( 'NONE', #194, 2.700000000000001510, 0.7853981633974453924 ) ;
#80 = APPROVAL_DATE_TIME ( #11, #18 ) ;
#81 = MECHANICAL_CONTEXT ( 'NONE', #33, 'mechanical' ) ;
#82 = CALENDAR_DATE ( 2021, 8, 12 ) ;
#83 = ADVANCED_BREP_SHAPE_REPRESENTATION ( '372593', ( #26, #109, #164 ), #48 ) ;
#84 = AXIS2_PLACEMENT_3D ( 'NONE', #143, #176, #8 ) ;
#85 = EDGE_CURVE ( 'NONE', #192, #192, #65, .T. ) ;
#86 = CALENDAR_DATE ( 2021, 8, 12 ) ;
#87 = AXIS2_PLACEMENT_3D ( 'NONE', #142, #58, #196 ) ;
#88 = PRODUCT_RELATED_PRODUCT_CATEGORY ( 'detail', '', ( #67 ) ) ;
#89 = ORIENTED_EDGE ( 'NONE', *, *, #124, .T. ) ;
#90 = EDGE_LOOP ( 'NONE', ( #50 ) ) ;
#91 = CLOSED_SHELL ( 'NONE', ( #55, #211, #117, #202, #158 ) ) ;
#92 = ORGANIZATION ( 'UNSPECIFIED', 'UNSPECIFIED', '' ) ;
#93 = FACE_OUTER_BOUND ( 'NONE', #90, .T. ) ;
#94 = CYLINDRICAL_SURFACE ( 'NONE', #181, 1.499999999999998668 ) ;
#95 = PLANE ( 'NONE',  #5 ) ;
#96 = PERSON ( 'UNSPECIFIED', 'UNSPECIFIED', 'UNSPECIFIED', ('UNSPECIFIED'), ('UNSPECIFIED'), ('UNSPECIFIED') ) ;
#97 = FACE_OUTER_BOUND ( 'NONE', #15, .T. ) ;
#98 = FACE_OUTER_BOUND ( 'NONE', #17, .T. ) ;
#99 = DIRECTION ( 'NONE',  ( 3.491481338843133355E-15, -1.276467311168695266E-16, 1.000000000000000000 ) ) ;
#100 = CIRCLE ( 'NONE', #134, 3.000000000000001332 ) ;
#101 = LOCAL_TIME ( 9, 40, 19.00000000000000000, #216 ) ;
#102 = APPLICATION_PROTOCOL_DEFINITION ( 'international standard', 'config_control_design', 1994, #222 ) ;
#103 = PERSON_AND_ORGANIZATION_ROLE ( 'creator' ) ;
#104 = APPLICATION_PROTOCOL_DEFINITION ( 'international standard', 'config_control_design', 1994, #33 ) ;
#105 = PERSON_AND_ORGANIZATION ( #96, #92 ) ;
#106 = PERSON_AND_ORGANIZATION_ROLE ( 'creator' ) ;
#107 = CC_DESIGN_PERSON_AND_ORGANIZATION_ASSIGNMENT ( #59, #200, ( #67 ) ) ;
#108 = EDGE_LOOP ( 'NONE', ( #125 ) ) ;
#109 = MANIFOLD_SOLID_BREP ( 'Corps-Déplacer/Copier1[2]', #212 ) ;
#110 = FACE_OUTER_BOUND ( 'NONE', #52, .T. ) ;
#111 = CIRCLE ( 'NONE', #22, 1.499999999999998668 ) ;
#112 = CC_DESIGN_PERSON_AND_ORGANIZATION_ASSIGNMENT ( #217, #185, ( #169 ) ) ;
#113 = FACE_OUTER_BOUND ( 'NONE', #108, .T. ) ;
#114 = DIRECTION ( 'NONE',  ( -4.456761796588771413E-31, -1.000000000000000000, -1.276467311168695019E-16 ) ) ;
#115 = LOCAL_TIME ( 9, 40, 19.00000000000000000, #44 ) ;
#116 = CARTESIAN_POINT ( 'NONE',  ( -6.413839710158237013E-31, 0.0000000000000000000, -1.836996703606440502E-16 ) ) ;
#117 = ADVANCED_FACE ( 'NONE', ( #97 ), #95, .F. ) ;
#118 = CYLINDRICAL_SURFACE ( 'NONE', #190, 2.999999999999999112 ) ;
#119 = DIRECTION ( 'NONE',  ( 0.0000000000000000000, 0.0000000000000000000, 1.000000000000000000 ) ) ;
#120 = PERSON_AND_ORGANIZATION ( #96, #92 ) ;
#121 = SECURITY_CLASSIFICATION_LEVEL ( 'unclassified' ) ;
#122 = CARTESIAN_POINT ( 'NONE',  ( -4.275870630573526707E-31, 1.499773526796246047E-32, -1.224658022084773030E-16 ) ) ;
#123 = CARTESIAN_POINT ( 'NONE',  ( 6.982962677686266711E-14, -2.552934622337390728E-15, 20.00000000000000000 ) ) ;
#124 = EDGE_CURVE ( 'NONE', #7, #7, #100, .T. ) ;
#125 = ORIENTED_EDGE ( 'NONE', *, *, #85, .T. ) ;
#126 = CC_DESIGN_DATE_AND_TIME_ASSIGNMENT ( #182, #154, ( #169 ) ) ;
#127 = DIRECTION ( 'NONE',  ( 4.275831445896958607E-31, 1.000000000000000000, 1.224646799147353207E-16 ) ) ;
#128 = CARTESIAN_POINT ( 'NONE',  ( 2.094888803305880013E-13, -7.347880794884118356E-15, 60.00000000000000000 ) ) ;
#129 = CARTESIAN_POINT ( 'NONE',  ( 2.094888803305880013E-13, 2.699999999999993960, 60.00000000000000000 ) ) ;
#130 = APPROVAL_PERSON_ORGANIZATION ( #136, #2, #43 ) ;
#131 = CARTESIAN_POINT ( 'NONE',  ( 6.982962677686266711E-14, -1.500000000000001332, 20.00000000000000000 ) ) ;
#132 = DIRECTION ( 'NONE',  ( -3.491481338843133355E-15, 1.224646799147353207E-16, -1.000000000000000000 ) ) ;
#133 = APPROVAL_DATE_TIME ( #149, #199 ) ;
#134 = AXIS2_PLACEMENT_3D ( 'NONE', #38, #132, #4 ) ;
#135 = APPROVAL_DATE_TIME ( #214, #2 ) ;
#136 = PERSON_AND_ORGANIZATION ( #96, #92 ) ;
#137 = CARTESIAN_POINT ( 'NONE',  ( 0.0000000000000000000, 0.0000000000000000000, 0.0000000000000000000 ) ) ;
#138 = SHAPE_DEFINITION_REPRESENTATION ( #69, #83 ) ;
#139 = ORIENTED_EDGE ( 'NONE', *, *, #145, .T. ) ;
#140 = LOCAL_TIME ( 9, 40, 19.00000000000000000, #62 ) ;
#141 = EDGE_CURVE ( 'NONE', #179, #179, #219, .T. ) ;
#142 = CARTESIAN_POINT ( 'NONE',  ( 8.937520540222437820E-14, -3.267510751259748528E-15, 25.59807621135330180 ) ) ;
#143 = CARTESIAN_POINT ( 'NONE',  ( 1.349815555280683623E-13, -4.934855052078584576E-15, 38.66025403784433223 ) ) ;
#144 = DIRECTION ( 'NONE',  ( -3.491481338843133355E-15, 1.224646799147353207E-16, -1.000000000000000000 ) ) ;
#145 = EDGE_CURVE ( 'NONE', #209, #209, #163, .T. ) ;
#146 = DIRECTION ( 'NONE',  ( 0.0000000000000000000, 1.000000000000000000, 0.0000000000000000000 ) ) ;
#147 = AXIS2_PLACEMENT_3D ( 'NONE', #122, #187, #189 ) ;
#148 = AXIS2_PLACEMENT_3D ( 'NONE', #213, #161, #72 ) ;
#149 = DATE_AND_TIME ( #82, #77 ) ;
#150 = CC_DESIGN_PERSON_AND_ORGANIZATION_ASSIGNMENT ( #105, #103, ( #40 ) ) ;
#151 = PERSON_AND_ORGANIZATION ( #96, #92 ) ;
#152 = PERSON_AND_ORGANIZATION_ROLE ( 'design_supplier' ) ;
#153 = CALENDAR_DATE ( 2021, 8, 12 ) ;
#154 = DATE_TIME_ROLE ( 'classification_date' ) ;
#155 = AXIS2_PLACEMENT_3D ( 'NONE', #207, #177, #162 ) ;
#156 = ORIENTED_EDGE ( 'NONE', *, *, #85, .F. ) ;
#157 = ORIENTED_EDGE ( 'NONE', *, *, #124, .F. ) ;
#158 = ADVANCED_FACE ( 'NONE', ( #191 ), #24, .F. ) ;
#159 = EDGE_LOOP ( 'NONE', ( #71 ) ) ;
#160 = EDGE_LOOP ( 'NONE', ( #36 ) ) ;
#161 = DIRECTION ( 'NONE',  ( 3.491481338843133355E-15, -1.224646799147353207E-16, 1.000000000000000000 ) ) ;
#162 = DIRECTION ( 'NONE',  ( 0.0000000000000000000, 1.000000000000000000, 0.0000000000000000000 ) ) ;
#163 = CIRCLE ( 'NONE', #155, 2.700000000000001510 ) ;
#164 = AXIS2_PLACEMENT_3D ( 'NONE', #137, #119, #10 ) ;
#165 = DIRECTION ( 'NONE',  ( 4.275831445896958607E-31, 1.000000000000000000, 1.224646799147353207E-16 ) ) ;
#166 = CC_DESIGN_PERSON_AND_ORGANIZATION_ASSIGNMENT ( #151, #106, ( #66 ) ) ;
#167 = CARTESIAN_POINT ( 'NONE',  ( -2.699534206289368904E-30, 7.524489584330193151E-32, -7.731773262702964654E-16 ) ) ;
#168 = DIRECTION ( 'NONE',  ( 3.491481338843133355E-15, -1.276467311168695266E-16, 1.000000000000000000 ) ) ;
#169 = SECURITY_CLASSIFICATION ( '', '', #121 ) ;
#170 = CC_DESIGN_PERSON_AND_ORGANIZATION_ASSIGNMENT ( #197, #152, ( #66 ) ) ;
#171 = CALENDAR_DATE ( 2021, 8, 12 ) ;
#172 = PERSON_AND_ORGANIZATION ( #96, #92 ) ;
#173 = EDGE_CURVE ( 'NONE', #23, #23, #111, .T. ) ;
#174 = CC_DESIGN_APPROVAL ( #18, ( #40 ) ) ;
#175 = FACE_OUTER_BOUND ( 'NONE', #49, .T. ) ;
#176 = DIRECTION ( 'NONE',  ( 3.491481338843133355E-15, -1.276467311168695266E-16, 1.000000000000000000 ) ) ;
#177 = DIRECTION ( 'NONE',  ( -3.491481338843133355E-15, 1.224646799147353207E-16, -1.000000000000000000 ) ) ;
#178 = APPROVAL_PERSON_ORGANIZATION ( #120, #18, #25 ) ;
#179 = VERTEX_POINT ( 'NONE', #57 ) ;
#180 = CARTESIAN_POINT ( 'NONE',  ( 0.0000000000000000000, 0.0000000000000000000, 0.0000000000000000000 ) ) ;
#181 = AXIS2_PLACEMENT_3D ( 'NONE', #116, #99, #42 ) ;
#182 = DATE_AND_TIME ( #86, #101 ) ;
#183 = DATE_AND_TIME ( #153, #115 ) ;
#184 = CALENDAR_DATE ( 2021, 8, 12 ) ;
#185 = PERSON_AND_ORGANIZATION_ROLE ( 'classification_officer' ) ;
#186 = CC_DESIGN_SECURITY_CLASSIFICATION ( #169, ( #66 ) ) ;
#187 = DIRECTION ( 'NONE',  ( 3.491481338843133355E-15, -1.224646799147353207E-16, 1.000000000000000000 ) ) ;
#188 = DIRECTION ( 'NONE',  ( 0.0000000000000000000, -1.000000000000000000, 0.0000000000000000000 ) ) ;
#189 = DIRECTION ( 'NONE',  ( -4.275831445896958607E-31, -1.000000000000000000, -1.224646799147353207E-16 ) ) ;
#190 = AXIS2_PLACEMENT_3D ( 'NONE', #180, #41, #127 ) ;
#191 = FACE_OUTER_BOUND ( 'NONE', #160, .T. ) ;
#192 = VERTEX_POINT ( 'NONE', #74 ) ;
#193 = FACE_OUTER_BOUND ( 'NONE', #14, .T. ) ;
#194 = AXIS2_PLACEMENT_3D ( 'NONE', #128, #144, #146 ) ;
#195 = ADVANCED_FACE ( 'NONE', ( #175 ), #76, .T. ) ;
#196 = DIRECTION ( 'NONE',  ( 0.0000000000000000000, -1.000000000000000000, 0.0000000000000000000 ) ) ;
#197 = PERSON_AND_ORGANIZATION ( #96, #92 ) ;
#198 = CC_DESIGN_APPROVAL ( #2, ( #169 ) ) ;
#199 = APPROVAL ( #13, 'UNSPECIFIED' ) ;
#200 = PERSON_AND_ORGANIZATION_ROLE ( 'design_owner' ) ;
#201 = AXIS2_PLACEMENT_3D ( 'NONE', #123, #34, #188 ) ;
#202 = ADVANCED_FACE ( 'NONE', ( #37, #113 ), #73, .T. ) ;
#203 = DESIGN_CONTEXT ( 'detailed design', #222, 'design' ) ;
#204 = FACE_OUTER_BOUND ( 'NONE', #221, .T. ) ;
#205 = LOCAL_TIME ( 9, 40, 19.00000000000000000, #27 ) ;
#206 = EDGE_LOOP ( 'NONE', ( #139 ) ) ;
#207 = CARTESIAN_POINT ( 'NONE',  ( 2.094888803305880013E-13, -7.347880794884118356E-15, 60.00000000000000000 ) ) ;
#208 = CARTESIAN_POINT ( 'NONE',  ( 6.982962677686266711E-14, 2.249639673992780117E-32, 20.00000000000000000 ) ) ;
#209 = VERTEX_POINT ( 'NONE', #129 ) ;
#210 = VERTEX_POINT ( 'NONE', #6 ) ;
#211 = ADVANCED_FACE ( 'NONE', ( #20, #56 ), #79, .T. ) ;
#212 = CLOSED_SHELL ( 'NONE', ( #195, #51, #35 ) ) ;
#213 = CARTESIAN_POINT ( 'NONE',  ( 6.982962677686266711E-14, 2.249639673992780117E-32, 20.00000000000000000 ) ) ;
#214 = DATE_AND_TIME ( #171, #140 ) ;
#215 = CC_DESIGN_DATE_AND_TIME_ASSIGNMENT ( #183, #12, ( #40 ) ) ;
#216 = COORDINATED_UNIVERSAL_TIME_OFFSET ( 1, 0, .AHEAD. ) ;
#217 = PERSON_AND_ORGANIZATION ( #96, #92 ) ;
#218 = APPROVAL_STATUS ( 'not_yet_approved' ) ;
#219 = CIRCLE ( 'NONE', #32, 1.499999999999998668 ) ;
#220 = ORIENTED_EDGE ( 'NONE', *, *, #47, .T. ) ;
#221 = EDGE_LOOP ( 'NONE', ( #16 ) ) ;
#222 = APPLICATION_CONTEXT ( 'configuration controlled 3d designs of mechanical parts and assemblies' ) ;
#223 = EDGE_LOOP ( 'NONE', ( #157 ) ) ;
ENDSEC;
END-ISO-10303-21;
