ISO-10303-21;
HEADER;
FILE_DESCRIPTION (( 'STEP AP203' ),
    '1' );
FILE_NAME ('372592.step',
    '2021-12-08T08:40:18',
    ( '' ),
    ( '' ),
    'SwSTEP 2.0',
    'SolidWorks 2019',
    '' );
FILE_SCHEMA (( 'CONFIG_CONTROL_DESIGN' ));
ENDSEC;

DATA;
#1 = APPROVAL_PERSON_ORGANIZATION ( #48, #190, #137 ) ;
#2 = ORIENTED_EDGE ( 'NONE', *, *, #36, .F. ) ;
#3 = EDGE_LOOP ( 'NONE', ( #124 ) ) ;
#4 = EDGE_CURVE ( 'NONE', #116, #116, #103, .T. ) ;
#5 = DIRECTION ( 'NONE',  ( -4.275831445896958607E-31, -1.000000000000000000, -1.224646799147353207E-16 ) ) ;
#6 = DIRECTION ( 'NONE',  ( 3.491481338843133355E-15, -1.276467311168695266E-16, 1.000000000000000000 ) ) ;
#7 = CIRCLE ( 'NONE', #121, 1.499999999999998668 ) ;
#8 = DIRECTION ( 'NONE',  ( 3.491481338843133355E-15, -1.276467311168695266E-16, 1.000000000000000000 ) ) ;
#9 = ADVANCED_FACE ( 'NONE', ( #76 ), #100, .F. ) ;
#10 = ORIENTED_EDGE ( 'NONE', *, *, #40, .T. ) ;
#11 = DIRECTION ( 'NONE',  ( -3.491481338843133355E-15, 1.224646799147353207E-16, -1.000000000000000000 ) ) ;
#12 = DATE_AND_TIME ( #204, #57 ) ;
#13 = APPROVAL_STATUS ( 'not_yet_approved' ) ;
#14 = LOCAL_TIME ( 9, 40, 18.00000000000000000, #35 ) ;
#15 = ADVANCED_FACE ( 'NONE', ( #149 ), #168, .T. ) ;
#16 = VERTEX_POINT ( 'NONE', #154 ) ;
#17 = PERSON_AND_ORGANIZATION ( #158, #217 ) ;
#18 = CC_DESIGN_SECURITY_CLASSIFICATION ( #209, ( #73 ) ) ;
#19 = UNCERTAINTY_MEASURE_WITH_UNIT (LENGTH_MEASURE( 1.000000000000000082E-05 ), #189, 'distance_accuracy_value', 'NONE');
#20 = SHAPE_DEFINITION_REPRESENTATION ( #115, #64 ) ;
#21 = ORIENTED_EDGE ( 'NONE', *, *, #36, .T. ) ;
#22 = EDGE_LOOP ( 'NONE', ( #39 ) ) ;
#23 = PLANE ( 'NONE',  #205 ) ;
#24 = DIRECTION ( 'NONE',  ( -4.275831445896958607E-31, -1.000000000000000000, -1.224646799147353207E-16 ) ) ;
#25 = DIRECTION ( 'NONE',  ( -3.491481338843133355E-15, 1.276467311168695266E-16, -1.000000000000000000 ) ) ;
#26 = LOCAL_TIME ( 9, 40, 18.00000000000000000, #32 ) ;
#27 = DIRECTION ( 'NONE',  ( 0.0000000000000000000, -1.000000000000000000, 0.0000000000000000000 ) ) ;
#28 = DIRECTION ( 'NONE',  ( 3.491481338843133355E-15, -1.276467311168695266E-16, 1.000000000000000000 ) ) ;
#29 = DIRECTION ( 'NONE',  ( 1.000000000000000000, 0.0000000000000000000, 0.0000000000000000000 ) ) ;
#30 = PERSON_AND_ORGANIZATION_ROLE ( 'design_owner' ) ;
#31 = APPLICATION_PROTOCOL_DEFINITION ( 'international standard', 'config_control_design', 1994, #191 ) ;
#32 = COORDINATED_UNIVERSAL_TIME_OFFSET ( 1, 0, .AHEAD. ) ;
#33 = DESIGN_CONTEXT ( 'detailed design', #180, 'design' ) ;
#34 = APPROVAL_ROLE ( '' ) ;
#35 = COORDINATED_UNIVERSAL_TIME_OFFSET ( 1, 0, .AHEAD. ) ;
#36 = EDGE_CURVE ( 'NONE', #187, #187, #37, .T. ) ;
#37 = CIRCLE ( 'NONE', #66, 2.700000000000001510 ) ;
#38 = AXIS2_PLACEMENT_3D ( 'NONE', #170, #153, #29 ) ;
#39 = ORIENTED_EDGE ( 'NONE', *, *, #4, .T. ) ;
#40 = EDGE_CURVE ( 'NONE', #49, #49, #165, .T. ) ;
#41 = DIRECTION ( 'NONE',  ( 0.0000000000000000000, 1.000000000000000000, 0.0000000000000000000 ) ) ;
#42 = PLANE ( 'NONE',  #125 ) ;
#43 = CC_DESIGN_PERSON_AND_ORGANIZATION_ASSIGNMENT ( #120, #30, ( #199 ) ) ;
#44 = FACE_OUTER_BOUND ( 'NONE', #193, .T. ) ;
#45 = DIRECTION ( 'NONE',  ( 3.491481338843133355E-15, -1.276467311168695266E-16, 1.000000000000000000 ) ) ;
#46 = DIRECTION ( 'NONE',  ( 3.491481338843133355E-15, -1.224646799147353207E-16, 1.000000000000000000 ) ) ;
#47 = DATE_AND_TIME ( #67, #78 ) ;
#48 = PERSON_AND_ORGANIZATION ( #158, #217 ) ;
#49 = VERTEX_POINT ( 'NONE', #107 ) ;
#50 = LOCAL_TIME ( 9, 40, 18.00000000000000000, #175 ) ;
#51 = ADVANCED_FACE ( 'NONE', ( #61 ), #42, .F. ) ;
#52 = APPROVAL_DATE_TIME ( #161, #123 ) ;
#53 = EDGE_LOOP ( 'NONE', ( #56 ) ) ;
#54 = AXIS2_PLACEMENT_3D ( 'NONE', #96, #6, #147 ) ;
#55 = PRODUCT_RELATED_PRODUCT_CATEGORY ( 'detail', '', ( #199 ) ) ;
#56 = ORIENTED_EDGE ( 'NONE', *, *, #77, .T. ) ;
#57 = LOCAL_TIME ( 9, 40, 18.00000000000000000, #105 ) ;
#58 = CARTESIAN_POINT ( 'NONE',  ( -2.699534206289368904E-30, 7.524489584330193151E-32, -7.731773262702964654E-16 ) ) ;
#59 = CC_DESIGN_PERSON_AND_ORGANIZATION_ASSIGNMENT ( #89, #221, ( #209 ) ) ;
#60 = DIRECTION ( 'NONE',  ( 3.491481338843133355E-15, -1.224646799147353207E-16, 1.000000000000000000 ) ) ;
#61 = FACE_OUTER_BOUND ( 'NONE', #71, .T. ) ;
#62 = DIRECTION ( 'NONE',  ( -3.491481338843133355E-15, 1.224646799147353207E-16, -1.000000000000000000 ) ) ;
#63 = CIRCLE ( 'NONE', #104, 2.999999999999998224 ) ;
#64 = ADVANCED_BREP_SHAPE_REPRESENTATION ( '372592', ( #101, #171, #38 ), #156 ) ;
#65 = FACE_OUTER_BOUND ( 'NONE', #176, .T. ) ;
#66 = AXIS2_PLACEMENT_3D ( 'NONE', #208, #62, #133 ) ;
#67 = CALENDAR_DATE ( 2021, 8, 12 ) ;
#68 = CC_DESIGN_DATE_AND_TIME_ASSIGNMENT ( #12, #218, ( #202 ) ) ;
#69 = CC_DESIGN_APPROVAL ( #70, ( #73 ) ) ;
#70 = APPROVAL ( #188, 'UNSPECIFIED' ) ;
#71 = EDGE_LOOP ( 'NONE', ( #207 ) ) ;
#72 = EDGE_CURVE ( 'NONE', #16, #16, #7, .T. ) ;
#73 = PRODUCT_DEFINITION_FORMATION_WITH_SPECIFIED_SOURCE ( 'ANY', '', #199, .NOT_KNOWN. ) ;
#74 = DATE_TIME_ROLE ( 'classification_date' ) ;
#75 = ORIENTED_EDGE ( 'NONE', *, *, #82, .T. ) ;
#76 = FACE_OUTER_BOUND ( 'NONE', #157, .T. ) ;
#77 = EDGE_CURVE ( 'NONE', #140, #140, #128, .T. ) ;
#78 = LOCAL_TIME ( 9, 40, 18.00000000000000000, #206 ) ;
#79 = DIRECTION ( 'NONE',  ( 0.0000000000000000000, -1.000000000000000000, 0.0000000000000000000 ) ) ;
#80 = CYLINDRICAL_SURFACE ( 'NONE', #97, 2.999999999999998224 ) ;
#81 = CARTESIAN_POINT ( 'NONE',  ( 4.189777606611760026E-14, -1.531760773402434319E-15, 12.00000000000000000 ) ) ;
#82 = EDGE_CURVE ( 'NONE', #118, #118, #63, .T. ) ;
#83 = FACE_OUTER_BOUND ( 'NONE', #160, .T. ) ;
#84 = PERSON_AND_ORGANIZATION_ROLE ( 'creator' ) ;
#85 = MECHANICAL_CONTEXT ( 'NONE', #191, 'mechanical' ) ;
#86 = PERSON_AND_ORGANIZATION ( #158, #217 ) ;
#87 = DATE_AND_TIME ( #108, #26 ) ;
#88 = AXIS2_PLACEMENT_3D ( 'NONE', #211, #46, #24 ) ;
#89 = PERSON_AND_ORGANIZATION ( #158, #217 ) ;
#90 = ADVANCED_FACE ( 'NONE', ( #102, #83 ), #80, .T. ) ;
#91 = EDGE_LOOP ( 'NONE', ( #75 ) ) ;
#92 = APPROVAL_PERSON_ORGANIZATION ( #138, #70, #34 ) ;
#93 = EDGE_LOOP ( 'NONE', ( #21 ) ) ;
#94 = DIRECTION ( 'NONE',  ( -4.456761796588770537E-31, -1.000000000000000000, -1.276467311168695512E-16 ) ) ;
#95 = ADVANCED_FACE ( 'NONE', ( #148, #129 ), #166, .T. ) ;
#96 = CARTESIAN_POINT ( 'NONE',  ( 1.070497048173233081E-13, -3.913681203143628758E-15, 30.66025403784432868 ) ) ;
#97 = AXIS2_PLACEMENT_3D ( 'NONE', #194, #98, #196 ) ;
#98 = DIRECTION ( 'NONE',  ( -3.491481338843133355E-15, 1.224646799147353207E-16, -1.000000000000000000 ) ) ;
#99 = CC_DESIGN_PERSON_AND_ORGANIZATION_ASSIGNMENT ( #86, #151, ( #202 ) ) ;
#100 = PLANE ( 'NONE',  #185 ) ;
#101 = MANIFOLD_SOLID_BREP ( 'Corps-Déplacer/Copier1[1]', #136 ) ;
#102 = FACE_OUTER_BOUND ( 'NONE', #53, .T. ) ;
#103 = CIRCLE ( 'NONE', #155, 1.499999999999998668 ) ;
#104 = AXIS2_PLACEMENT_3D ( 'NONE', #198, #25, #130 ) ;
#105 = COORDINATED_UNIVERSAL_TIME_OFFSET ( 1, 0, .AHEAD. ) ;
#106 = CC_DESIGN_PERSON_AND_ORGANIZATION_ASSIGNMENT ( #214, #135, ( #73 ) ) ;
#107 = CARTESIAN_POINT ( 'NONE',  ( -3.368048475777683653E-30, -1.499999999999998668, -9.646474229456005827E-16 ) ) ;
#108 = CALENDAR_DATE ( 2021, 8, 12 ) ;
#109 = CALENDAR_DATE ( 2021, 8, 12 ) ;
#110 = PERSON_AND_ORGANIZATION ( #158, #217 ) ;
#111 = DIRECTION ( 'NONE',  ( 3.491481338843133355E-15, -1.224646799147353207E-16, 1.000000000000000000 ) ) ;
#112 = DIRECTION ( 'NONE',  ( -4.275831445896958607E-31, -1.000000000000000000, -1.224646799147353207E-16 ) ) ;
#113 = FACE_OUTER_BOUND ( 'NONE', #3, .T. ) ;
#114 = DIRECTION ( 'NONE',  ( -4.456761796588771413E-31, -1.000000000000000000, -1.276467311168695019E-16 ) ) ;
#115 = PRODUCT_DEFINITION_SHAPE ( 'NONE', 'NONE',  #202 ) ;
#116 = VERTEX_POINT ( 'NONE', #203 ) ;
#117 = CC_DESIGN_APPROVAL ( #123, ( #209 ) ) ;
#118 = VERTEX_POINT ( 'NONE', #152 ) ;
#119 =( NAMED_UNIT ( * ) PLANE_ANGLE_UNIT ( ) SI_UNIT ( $, .RADIAN. ) );
#120 = PERSON_AND_ORGANIZATION ( #158, #217 ) ;
#121 = AXIS2_PLACEMENT_3D ( 'NONE', #167, #8, #79 ) ;
#122 = CALENDAR_DATE ( 2021, 8, 12 ) ;
#123 = APPROVAL ( #126, 'UNSPECIFIED' ) ;
#124 = ORIENTED_EDGE ( 'NONE', *, *, #72, .F. ) ;
#125 = AXIS2_PLACEMENT_3D ( 'NONE', #195, #60, #112 ) ;
#126 = APPROVAL_STATUS ( 'not_yet_approved' ) ;
#127 = EDGE_LOOP ( 'NONE', ( #144 ) ) ;
#128 = CIRCLE ( 'NONE', #201, 3.000000000000001332 ) ;
#129 = FACE_BOUND ( 'NONE', #93, .T. ) ;
#130 = DIRECTION ( 'NONE',  ( 0.0000000000000000000, -1.000000000000000000, 0.0000000000000000000 ) ) ;
#131 = CARTESIAN_POINT ( 'NONE',  ( 2.084414359289350550E-13, -7.311141390909697496E-15, 59.69999999999999574 ) ) ;
#132 = CONICAL_SURFACE ( 'NONE', #54, 6.500000000000000000, 0.2617993877991502405 ) ;
#133 = DIRECTION ( 'NONE',  ( 0.0000000000000000000, 1.000000000000000000, 0.0000000000000000000 ) ) ;
#134 = DIRECTION ( 'NONE',  ( 4.275831445896958607E-31, 1.000000000000000000, 1.224646799147353207E-16 ) ) ;
#135 = PERSON_AND_ORGANIZATION_ROLE ( 'design_supplier' ) ;
#136 = CLOSED_SHELL ( 'NONE', ( #90, #95, #9, #215, #51 ) ) ;
#137 = APPROVAL_ROLE ( '' ) ;
#138 = PERSON_AND_ORGANIZATION ( #158, #217 ) ;
#139 = ADVANCED_FACE ( 'NONE', ( #44, #113 ), #150, .T. ) ;
#140 = VERTEX_POINT ( 'NONE', #219 ) ;
#141 =( NAMED_UNIT ( * ) SI_UNIT ( $, .STERADIAN. ) SOLID_ANGLE_UNIT ( ) );
#142 = ORIENTED_EDGE ( 'NONE', *, *, #72, .T. ) ;
#143 = CC_DESIGN_PERSON_AND_ORGANIZATION_ASSIGNMENT ( #17, #84, ( #73 ) ) ;
#144 = ORIENTED_EDGE ( 'NONE', *, *, #77, .F. ) ;
#145 = FACE_BOUND ( 'NONE', #22, .T. ) ;
#146 = CC_DESIGN_APPROVAL ( #190, ( #202 ) ) ;
#147 = DIRECTION ( 'NONE',  ( 0.0000000000000000000, -1.000000000000000000, 0.0000000000000000000 ) ) ;
#148 = FACE_OUTER_BOUND ( 'NONE', #127, .T. ) ;
#149 = FACE_OUTER_BOUND ( 'NONE', #212, .T. ) ;
#150 = CYLINDRICAL_SURFACE ( 'NONE', #174, 1.499999999999998668 ) ;
#151 = PERSON_AND_ORGANIZATION_ROLE ( 'creator' ) ;
#152 = CARTESIAN_POINT ( 'NONE',  ( 6.144335469147928612E-14, -3.000000000000000444, 17.59807621135329470 ) ) ;
#153 = DIRECTION ( 'NONE',  ( 0.0000000000000000000, 0.0000000000000000000, 1.000000000000000000 ) ) ;
#154 = CARTESIAN_POINT ( 'NONE',  ( 4.189777606611760026E-14, -1.500000000000000222, 12.00000000000000000 ) ) ;
#155 = AXIS2_PLACEMENT_3D ( 'NONE', #81, #28, #27 ) ;
#156 =( GEOMETRIC_REPRESENTATION_CONTEXT ( 3 ) GLOBAL_UNCERTAINTY_ASSIGNED_CONTEXT ( ( #19 ) ) GLOBAL_UNIT_ASSIGNED_CONTEXT ( ( #189, #119, #141 ) ) REPRESENTATION_CONTEXT ( 'NONE', 'WORKASPACE' ) );
#157 = EDGE_LOOP ( 'NONE', ( #2 ) ) ;
#158 = PERSON ( 'UNSPECIFIED', 'UNSPECIFIED', 'UNSPECIFIED', ('UNSPECIFIED'), ('UNSPECIFIED'), ('UNSPECIFIED') ) ;
#159 = DATE_AND_TIME ( #109, #14 ) ;
#160 = EDGE_LOOP ( 'NONE', ( #169 ) ) ;
#161 = DATE_AND_TIME ( #122, #50 ) ;
#162 = ORIENTED_EDGE ( 'NONE', *, *, #40, .F. ) ;
#163 = CARTESIAN_POINT ( 'NONE',  ( -4.275870630573526707E-31, 1.499773526796246047E-32, -1.224658022084773030E-16 ) ) ;
#164 = CARTESIAN_POINT ( 'NONE',  ( 2.094888803305880013E-13, -7.347880794884118356E-15, 60.00000000000000000 ) ) ;
#165 = CIRCLE ( 'NONE', #220, 1.499999999999998668 ) ;
#166 = CONICAL_SURFACE ( 'NONE', #186, 2.700000000000001510, 0.7853981633974453924 ) ;
#167 = CARTESIAN_POINT ( 'NONE',  ( 4.189777606611760026E-14, -1.531760773402434319E-15, 12.00000000000000000 ) ) ;
#168 = PLANE ( 'NONE',  #88 ) ;
#169 = ORIENTED_EDGE ( 'NONE', *, *, #82, .F. ) ;
#170 = CARTESIAN_POINT ( 'NONE',  ( 0.0000000000000000000, 0.0000000000000000000, 0.0000000000000000000 ) ) ;
#171 = MANIFOLD_SOLID_BREP ( 'Corps-Déplacer/Copier1[2]', #192 ) ;
#172 = CARTESIAN_POINT ( 'NONE',  ( 2.094888803305880013E-13, 2.699999999999993960, 60.00000000000000000 ) ) ;
#173 = APPROVAL_DATE_TIME ( #87, #70 ) ;
#174 = AXIS2_PLACEMENT_3D ( 'NONE', #213, #183, #94 ) ;
#175 = COORDINATED_UNIVERSAL_TIME_OFFSET ( 1, 0, .AHEAD. ) ;
#176 = EDGE_LOOP ( 'NONE', ( #162 ) ) ;
#177 = DIRECTION ( 'NONE',  ( -3.491481338843133355E-15, 1.224646799147353207E-16, -1.000000000000000000 ) ) ;
#178 = FACE_OUTER_BOUND ( 'NONE', #91, .T. ) ;
#179 = ADVANCED_FACE ( 'NONE', ( #65 ), #23, .F. ) ;
#180 = APPLICATION_CONTEXT ( 'configuration controlled 3d designs of mechanical parts and assemblies' ) ;
#181 = DIRECTION ( 'NONE',  ( 0.0000000000000000000, 1.000000000000000000, 0.0000000000000000000 ) ) ;
#182 = APPROVAL_PERSON_ORGANIZATION ( #110, #123, #223 ) ;
#183 = DIRECTION ( 'NONE',  ( 3.491481338843133355E-15, -1.276467311168695266E-16, 1.000000000000000000 ) ) ;
#184 = APPROVAL_DATE_TIME ( #47, #190 ) ;
#185 = AXIS2_PLACEMENT_3D ( 'NONE', #210, #197, #134 ) ;
#186 = AXIS2_PLACEMENT_3D ( 'NONE', #164, #177, #41 ) ;
#187 = VERTEX_POINT ( 'NONE', #172 ) ;
#188 = APPROVAL_STATUS ( 'not_yet_approved' ) ;
#189 =( LENGTH_UNIT ( ) NAMED_UNIT ( * ) SI_UNIT ( .MILLI., .METRE. ) );
#190 = APPROVAL ( #13, 'UNSPECIFIED' ) ;
#191 = APPLICATION_CONTEXT ( 'configuration controlled 3d designs of mechanical parts and assemblies' ) ;
#192 = CLOSED_SHELL ( 'NONE', ( #15, #139, #179 ) ) ;
#193 = EDGE_LOOP ( 'NONE', ( #10 ) ) ;
#194 = CARTESIAN_POINT ( 'NONE',  ( 0.0000000000000000000, 0.0000000000000000000, 0.0000000000000000000 ) ) ;
#195 = CARTESIAN_POINT ( 'NONE',  ( 4.189777606611760026E-14, 2.249639673992780938E-32, 12.00000000000000000 ) ) ;
#196 = DIRECTION ( 'NONE',  ( 4.275831445896958607E-31, 1.000000000000000000, 1.224646799147353454E-16 ) ) ;
#197 = DIRECTION ( 'NONE',  ( -3.491481338843133355E-15, 1.224646799147353207E-16, -1.000000000000000000 ) ) ;
#198 = CARTESIAN_POINT ( 'NONE',  ( 6.144335469147928612E-14, -2.246336902324792315E-15, 17.59807621135329470 ) ) ;
#199 = PRODUCT ( '372592', '372592', '', ( #85 ) ) ;
#200 = SECURITY_CLASSIFICATION_LEVEL ( 'unclassified' ) ;
#201 = AXIS2_PLACEMENT_3D ( 'NONE', #131, #11, #181 ) ;
#202 = PRODUCT_DEFINITION ( 'UNKNOWN', '', #73, #33 ) ;
#203 = CARTESIAN_POINT ( 'NONE',  ( 4.189777606611760026E-14, -1.500000000000000222, 12.00000000000000000 ) ) ;
#204 = CALENDAR_DATE ( 2021, 8, 12 ) ;
#205 = AXIS2_PLACEMENT_3D ( 'NONE', #163, #111, #5 ) ;
#206 = COORDINATED_UNIVERSAL_TIME_OFFSET ( 1, 0, .AHEAD. ) ;
#207 = ORIENTED_EDGE ( 'NONE', *, *, #4, .F. ) ;
#208 = CARTESIAN_POINT ( 'NONE',  ( 2.094888803305880013E-13, -7.347880794884118356E-15, 60.00000000000000000 ) ) ;
#209 = SECURITY_CLASSIFICATION ( '', '', #200 ) ;
#210 = CARTESIAN_POINT ( 'NONE',  ( 2.094888803305880013E-13, 2.024675706593497918E-32, 60.00000000000000000 ) ) ;
#211 = CARTESIAN_POINT ( 'NONE',  ( 4.189777606611760026E-14, 2.249639673992780938E-32, 12.00000000000000000 ) ) ;
#212 = EDGE_LOOP ( 'NONE', ( #142 ) ) ;
#213 = CARTESIAN_POINT ( 'NONE',  ( -6.413839710158237013E-31, 0.0000000000000000000, -1.836996703606440502E-16 ) ) ;
#214 = PERSON_AND_ORGANIZATION ( #158, #217 ) ;
#215 = ADVANCED_FACE ( 'NONE', ( #145, #178 ), #132, .T. ) ;
#216 = APPLICATION_PROTOCOL_DEFINITION ( 'international standard', 'config_control_design', 1994, #180 ) ;
#217 = ORGANIZATION ( 'UNSPECIFIED', 'UNSPECIFIED', '' ) ;
#218 = DATE_TIME_ROLE ( 'creation_date' ) ;
#219 = CARTESIAN_POINT ( 'NONE',  ( 2.084414359289350550E-13, 2.999999999999993783, 59.69999999999999574 ) ) ;
#220 = AXIS2_PLACEMENT_3D ( 'NONE', #58, #45, #114 ) ;
#221 = PERSON_AND_ORGANIZATION_ROLE ( 'classification_officer' ) ;
#222 = CC_DESIGN_DATE_AND_TIME_ASSIGNMENT ( #159, #74, ( #209 ) ) ;
#223 = APPROVAL_ROLE ( '' ) ;
ENDSEC;
END-ISO-10303-21;
