ISO-10303-21;
HEADER;
FILE_DESCRIPTION (( 'STEP AP203' ),
    '1' );
FILE_NAME ('372591.step',
    '2021-12-08T08:40:18',
    ( '' ),
    ( '' ),
    'SwSTEP 2.0',
    'SolidWorks 2019',
    '' );
FILE_SCHEMA (( 'CONFIG_CONTROL_DESIGN' ));
ENDSEC;

DATA;
#1 = CALENDAR_DATE ( 2021, 8, 12 ) ;
#2 = ADVANCED_FACE ( 'NONE', ( #29 ), #154, .F. ) ;
#3 = AXIS2_PLACEMENT_3D ( 'NONE', #167, #152, #12 ) ;
#4 = CC_DESIGN_APPROVAL ( #135, ( #95 ) ) ;
#5 = ORIENTED_EDGE ( 'NONE', *, *, #39, .T. ) ;
#6 = EDGE_CURVE ( 'NONE', #173, #173, #42, .T. ) ;
#7 = COORDINATED_UNIVERSAL_TIME_OFFSET ( 1, 0, .AHEAD. ) ;
#8 = APPROVAL_PERSON_ORGANIZATION ( #190, #141, #172 ) ;
#9 = DIRECTION ( 'NONE',  ( 3.491481338843133355E-15, -1.224646799147353207E-16, 1.000000000000000000 ) ) ;
#10 = ORIENTED_EDGE ( 'NONE', *, *, #36, .T. ) ;
#11 = AXIS2_PLACEMENT_3D ( 'NONE', #155, #165, #107 ) ;
#12 = DIRECTION ( 'NONE',  ( 0.0000000000000000000, -1.000000000000000000, 0.0000000000000000000 ) ) ;
#13 = AXIS2_PLACEMENT_3D ( 'NONE', #88, #87, #121 ) ;
#14 = FACE_OUTER_BOUND ( 'NONE', #69, .T. ) ;
#15 = DIRECTION ( 'NONE',  ( 4.275831445896958607E-31, 1.000000000000000000, 1.224646799147353207E-16 ) ) ;
#16 = CARTESIAN_POINT ( 'NONE',  ( 5.446039201379305096E-14, -3.000000000000000444, 15.59807621135330002 ) ) ;
#17 = COORDINATED_UNIVERSAL_TIME_OFFSET ( 1, 0, .AHEAD. ) ;
#18 = CARTESIAN_POINT ( 'NONE',  ( 3.491481338843133355E-14, -1.499999999999999556, 10.00000000000000000 ) ) ;
#19 = AXIS2_PLACEMENT_3D ( 'NONE', #119, #26, #106 ) ;
#20 = EDGE_LOOP ( 'NONE', ( #89 ) ) ;
#21 = MANIFOLD_SOLID_BREP ( 'Corps-Déplacer/Copier1[1]', #108 ) ;
#22 = ORIENTED_EDGE ( 'NONE', *, *, #6, .F. ) ;
#23 = PERSON_AND_ORGANIZATION ( #31, #149 ) ;
#24 = EDGE_LOOP ( 'NONE', ( #134 ) ) ;
#25 = CARTESIAN_POINT ( 'NONE',  ( 1.000667421396370540E-13, -3.658387740909890592E-15, 28.66025403784433578 ) ) ;
#26 = DIRECTION ( 'NONE',  ( 3.491481338843133355E-15, -1.276467311168695266E-16, 1.000000000000000000 ) ) ;
#27 = PRODUCT_RELATED_PRODUCT_CATEGORY ( 'detail', '', ( #218 ) ) ;
#28 = DIRECTION ( 'NONE',  ( 0.0000000000000000000, -1.000000000000000000, 0.0000000000000000000 ) ) ;
#29 = FACE_OUTER_BOUND ( 'NONE', #66, .T. ) ;
#30 = EDGE_LOOP ( 'NONE', ( #5 ) ) ;
#31 = PERSON ( 'UNSPECIFIED', 'UNSPECIFIED', 'UNSPECIFIED', ('UNSPECIFIED'), ('UNSPECIFIED'), ('UNSPECIFIED') ) ;
#32 = ADVANCED_FACE ( 'NONE', ( #164 ), #156, .T. ) ;
#33 = CARTESIAN_POINT ( 'NONE',  ( 3.491481338843133355E-14, -1.499999999999999556, 10.00000000000000000 ) ) ;
#34 = PERSON_AND_ORGANIZATION_ROLE ( 'creator' ) ;
#35 =( LENGTH_UNIT ( ) NAMED_UNIT ( * ) SI_UNIT ( .MILLI., .METRE. ) );
#36 = EDGE_CURVE ( 'NONE', #124, #124, #188, .T. ) ;
#37 = CIRCLE ( 'NONE', #11, 2.700000000000001510 ) ;
#38 = APPROVAL_ROLE ( '' ) ;
#39 = EDGE_CURVE ( 'NONE', #56, #56, #57, .T. ) ;
#40 = AXIS2_PLACEMENT_3D ( 'NONE', #25, #65, #180 ) ;
#41 = PERSON_AND_ORGANIZATION ( #31, #149 ) ;
#42 = CIRCLE ( 'NONE', #3, 1.499999999999998224 ) ;
#43 = COORDINATED_UNIVERSAL_TIME_OFFSET ( 1, 0, .AHEAD. ) ;
#44 = DIRECTION ( 'NONE',  ( 0.0000000000000000000, -1.000000000000000000, 0.0000000000000000000 ) ) ;
#45 = CIRCLE ( 'NONE', #19, 1.499999999999998668 ) ;
#46 = ORIENTED_EDGE ( 'NONE', *, *, #36, .F. ) ;
#47 = DESIGN_CONTEXT ( 'detailed design', #201, 'design' ) ;
#48 = DIRECTION ( 'NONE',  ( -3.491481338843133355E-15, 1.276467311168695266E-16, -1.000000000000000000 ) ) ;
#49 = CARTESIAN_POINT ( 'NONE',  ( -4.275870630573526707E-31, 1.499773526796246047E-32, -1.224658022084773030E-16 ) ) ;
#50 = AXIS2_PLACEMENT_3D ( 'NONE', #70, #110, #170 ) ;
#51 = DIRECTION ( 'NONE',  ( 0.0000000000000000000, 1.000000000000000000, 0.0000000000000000000 ) ) ;
#52 = ADVANCED_FACE ( 'NONE', ( #122, #168 ), #197, .T. ) ;
#53 = PERSON_AND_ORGANIZATION ( #31, #149 ) ;
#54 = ADVANCED_BREP_SHAPE_REPRESENTATION ( '372591', ( #21, #171, #138 ), #103 ) ;
#55 = COORDINATED_UNIVERSAL_TIME_OFFSET ( 1, 0, .AHEAD. ) ;
#56 = VERTEX_POINT ( 'NONE', #16 ) ;
#57 = CIRCLE ( 'NONE', #177, 2.999999999999998224 ) ;
#58 = DIRECTION ( 'NONE',  ( 1.000000000000000000, 0.0000000000000000000, 0.0000000000000000000 ) ) ;
#59 = CARTESIAN_POINT ( 'NONE',  ( 0.0000000000000000000, 0.0000000000000000000, 0.0000000000000000000 ) ) ;
#60 = DATE_AND_TIME ( #84, #67 ) ;
#61 = PERSON_AND_ORGANIZATION_ROLE ( 'creator' ) ;
#62 = EDGE_LOOP ( 'NONE', ( #102 ) ) ;
#63 = DATE_TIME_ROLE ( 'classification_date' ) ;
#64 = CLOSED_SHELL ( 'NONE', ( #32, #52, #2 ) ) ;
#65 = DIRECTION ( 'NONE',  ( 3.491481338843133355E-15, -1.276467311168695266E-16, 1.000000000000000000 ) ) ;
#66 = EDGE_LOOP ( 'NONE', ( #81 ) ) ;
#67 = LOCAL_TIME ( 9, 40, 18.00000000000000000, #7 ) ;
#68 = ADVANCED_FACE ( 'NONE', ( #14, #71 ), #220, .T. ) ;
#69 = EDGE_LOOP ( 'NONE', ( #46 ) ) ;
#70 = CARTESIAN_POINT ( 'NONE',  ( 3.491481338843133355E-14, 2.249639673992780938E-32, 10.00000000000000000 ) ) ;
#71 = FACE_BOUND ( 'NONE', #148, .T. ) ;
#72 = ADVANCED_FACE ( 'NONE', ( #183, #136 ), #151, .T. ) ;
#73 = PERSON_AND_ORGANIZATION ( #31, #149 ) ;
#74 = CARTESIAN_POINT ( 'NONE',  ( 2.084414359289350550E-13, 2.999999999999993783, 59.69999999999999574 ) ) ;
#75 = CC_DESIGN_DATE_AND_TIME_ASSIGNMENT ( #112, #205, ( #222 ) ) ;
#76 = APPLICATION_PROTOCOL_DEFINITION ( 'international standard', 'config_control_design', 1994, #201 ) ;
#77 = PRODUCT_DEFINITION_SHAPE ( 'NONE', 'NONE',  #222 ) ;
#78 = DATE_AND_TIME ( #158, #131 ) ;
#79 = ADVANCED_FACE ( 'NONE', ( #169, #210 ), #166, .T. ) ;
#80 = APPROVAL_DATE_TIME ( #78, #141 ) ;
#81 = ORIENTED_EDGE ( 'NONE', *, *, #125, .F. ) ;
#82 = CC_DESIGN_PERSON_AND_ORGANIZATION_ASSIGNMENT ( #41, #147, ( #179 ) ) ;
#83 = EDGE_LOOP ( 'NONE', ( #185 ) ) ;
#84 = CALENDAR_DATE ( 2021, 8, 12 ) ;
#85 = CARTESIAN_POINT ( 'NONE',  ( 2.094888803305880013E-13, -7.347880794884118356E-15, 60.00000000000000000 ) ) ;
#86 = DIRECTION ( 'NONE',  ( -3.491481338843133355E-15, 1.224646799147353207E-16, -1.000000000000000000 ) ) ;
#87 = DIRECTION ( 'NONE',  ( 3.491481338843133355E-15, -1.276467311168695266E-16, 1.000000000000000000 ) ) ;
#88 = CARTESIAN_POINT ( 'NONE',  ( -6.413839710158237013E-31, 0.0000000000000000000, -1.836996703606440502E-16 ) ) ;
#89 = ORIENTED_EDGE ( 'NONE', *, *, #125, .T. ) ;
#90 =( NAMED_UNIT ( * ) PLANE_ANGLE_UNIT ( ) SI_UNIT ( $, .RADIAN. ) );
#91 = VERTEX_POINT ( 'NONE', #115 ) ;
#92 = CARTESIAN_POINT ( 'NONE',  ( 2.094888803305880013E-13, 2.024675706593497918E-32, 60.00000000000000000 ) ) ;
#93 = CC_DESIGN_DATE_AND_TIME_ASSIGNMENT ( #146, #63, ( #95 ) ) ;
#94 = CALENDAR_DATE ( 2021, 8, 12 ) ;
#95 = SECURITY_CLASSIFICATION ( '', '', #98 ) ;
#96 = VERTEX_POINT ( 'NONE', #128 ) ;
#97 = EDGE_CURVE ( 'NONE', #189, #189, #184, .T. ) ;
#98 = SECURITY_CLASSIFICATION_LEVEL ( 'unclassified' ) ;
#99 = LOCAL_TIME ( 9, 40, 18.00000000000000000, #223 ) ;
#100 = EDGE_LOOP ( 'NONE', ( #22 ) ) ;
#101 = EDGE_LOOP ( 'NONE', ( #10 ) ) ;
#102 = ORIENTED_EDGE ( 'NONE', *, *, #97, .T. ) ;
#103 =( GEOMETRIC_REPRESENTATION_CONTEXT ( 3 ) GLOBAL_UNCERTAINTY_ASSIGNED_CONTEXT ( ( #199 ) ) GLOBAL_UNIT_ASSIGNED_CONTEXT ( ( #35, #90, #221 ) ) REPRESENTATION_CONTEXT ( 'NONE', 'WORKASPACE' ) );
#104 = DIRECTION ( 'NONE',  ( -3.491481338843133355E-15, 1.224646799147353207E-16, -1.000000000000000000 ) ) ;
#105 = CC_DESIGN_PERSON_AND_ORGANIZATION_ASSIGNMENT ( #192, #61, ( #179 ) ) ;
#106 = DIRECTION ( 'NONE',  ( -4.456761796588771413E-31, -1.000000000000000000, -1.276467311168695019E-16 ) ) ;
#107 = DIRECTION ( 'NONE',  ( 0.0000000000000000000, 1.000000000000000000, 0.0000000000000000000 ) ) ;
#108 = CLOSED_SHELL ( 'NONE', ( #72, #68, #186, #79, #162 ) ) ;
#109 = DIRECTION ( 'NONE',  ( 0.0000000000000000000, 1.000000000000000000, 0.0000000000000000000 ) ) ;
#110 = DIRECTION ( 'NONE',  ( 3.491481338843133355E-15, -1.224646799147353207E-16, 1.000000000000000000 ) ) ;
#111 = LOCAL_TIME ( 9, 40, 18.00000000000000000, #55 ) ;
#112 = DATE_AND_TIME ( #1, #99 ) ;
#113 = APPROVAL_STATUS ( 'not_yet_approved' ) ;
#114 = FACE_OUTER_BOUND ( 'NONE', #83, .T. ) ;
#115 = CARTESIAN_POINT ( 'NONE',  ( 2.094888803305880013E-13, 2.699999999999993960, 60.00000000000000000 ) ) ;
#116 = EDGE_LOOP ( 'NONE', ( #200 ) ) ;
#117 = LOCAL_TIME ( 9, 40, 18.00000000000000000, #43 ) ;
#118 = APPLICATION_CONTEXT ( 'configuration controlled 3d designs of mechanical parts and assemblies' ) ;
#119 = CARTESIAN_POINT ( 'NONE',  ( -2.699534206289368904E-30, 7.524489584330193151E-32, -7.731773262702964654E-16 ) ) ;
#120 = ORIENTED_EDGE ( 'NONE', *, *, #39, .F. ) ;
#121 = DIRECTION ( 'NONE',  ( -4.456761796588770537E-31, -1.000000000000000000, -1.276467311168695512E-16 ) ) ;
#122 = FACE_OUTER_BOUND ( 'NONE', #20, .T. ) ;
#123 = CARTESIAN_POINT ( 'NONE',  ( 0.0000000000000000000, 0.0000000000000000000, 0.0000000000000000000 ) ) ;
#124 = VERTEX_POINT ( 'NONE', #74 ) ;
#125 = EDGE_CURVE ( 'NONE', #96, #96, #45, .T. ) ;
#126 = DATE_AND_TIME ( #94, #111 ) ;
#127 = CC_DESIGN_SECURITY_CLASSIFICATION ( #95, ( #179 ) ) ;
#128 = CARTESIAN_POINT ( 'NONE',  ( -3.368048475777683653E-30, -1.499999999999998668, -9.646474229456005827E-16 ) ) ;
#129 = EDGE_CURVE ( 'NONE', #91, #91, #37, .T. ) ;
#130 = APPLICATION_PROTOCOL_DEFINITION ( 'international standard', 'config_control_design', 1994, #118 ) ;
#131 = LOCAL_TIME ( 9, 40, 18.00000000000000000, #17 ) ;
#132 = AXIS2_PLACEMENT_3D ( 'NONE', #202, #86, #109 ) ;
#133 = CARTESIAN_POINT ( 'NONE',  ( 3.491481338843133355E-14, 2.249639673992780938E-32, 10.00000000000000000 ) ) ;
#134 = ORIENTED_EDGE ( 'NONE', *, *, #97, .F. ) ;
#135 = APPROVAL ( #174, 'UNSPECIFIED' ) ;
#136 = FACE_OUTER_BOUND ( 'NONE', #208, .T. ) ;
#137 = DIRECTION ( 'NONE',  ( 4.275831445896958607E-31, 1.000000000000000000, 1.224646799147353454E-16 ) ) ;
#138 = AXIS2_PLACEMENT_3D ( 'NONE', #59, #219, #58 ) ;
#139 = DIRECTION ( 'NONE',  ( 3.491481338843133355E-15, -1.224646799147353207E-16, 1.000000000000000000 ) ) ;
#140 = PERSON_AND_ORGANIZATION_ROLE ( 'design_owner' ) ;
#141 = APPROVAL ( #113, 'UNSPECIFIED' ) ;
#142 = PERSON_AND_ORGANIZATION ( #31, #149 ) ;
#143 = AXIS2_PLACEMENT_3D ( 'NONE', #92, #144, #15 ) ;
#144 = DIRECTION ( 'NONE',  ( -3.491481338843133355E-15, 1.224646799147353207E-16, -1.000000000000000000 ) ) ;
#145 = AXIS2_PLACEMENT_3D ( 'NONE', #133, #139, #216 ) ;
#146 = DATE_AND_TIME ( #207, #117 ) ;
#147 = PERSON_AND_ORGANIZATION_ROLE ( 'design_supplier' ) ;
#148 = EDGE_LOOP ( 'NONE', ( #194 ) ) ;
#149 = ORGANIZATION ( 'UNSPECIFIED', 'UNSPECIFIED', '' ) ;
#150 = CC_DESIGN_PERSON_AND_ORGANIZATION_ASSIGNMENT ( #209, #178, ( #95 ) ) ;
#151 = CYLINDRICAL_SURFACE ( 'NONE', #153, 2.999999999999998224 ) ;
#152 = DIRECTION ( 'NONE',  ( 3.491481338843133355E-15, -1.276467311168695266E-16, 1.000000000000000000 ) ) ;
#153 = AXIS2_PLACEMENT_3D ( 'NONE', #123, #187, #137 ) ;
#154 = PLANE ( 'NONE',  #160 ) ;
#155 = CARTESIAN_POINT ( 'NONE',  ( 2.094888803305880013E-13, -7.347880794884118356E-15, 60.00000000000000000 ) ) ;
#156 = PLANE ( 'NONE',  #145 ) ;
#157 = APPROVAL_DATE_TIME ( #126, #175 ) ;
#158 = CALENDAR_DATE ( 2021, 8, 12 ) ;
#159 = CC_DESIGN_APPROVAL ( #141, ( #179 ) ) ;
#160 = AXIS2_PLACEMENT_3D ( 'NONE', #49, #9, #214 ) ;
#161 = APPROVAL_DATE_TIME ( #60, #135 ) ;
#162 = ADVANCED_FACE ( 'NONE', ( #198 ), #215, .F. ) ;
#163 = AXIS2_PLACEMENT_3D ( 'NONE', #181, #196, #44 ) ;
#164 = FACE_OUTER_BOUND ( 'NONE', #116, .T. ) ;
#165 = DIRECTION ( 'NONE',  ( -3.491481338843133355E-15, 1.224646799147353207E-16, -1.000000000000000000 ) ) ;
#166 = CONICAL_SURFACE ( 'NONE', #40, 6.499999999999999112, 0.2617993877991501850 ) ;
#167 = CARTESIAN_POINT ( 'NONE',  ( 3.491481338843133355E-14, -1.276467311168695364E-15, 10.00000000000000000 ) ) ;
#168 = FACE_OUTER_BOUND ( 'NONE', #100, .T. ) ;
#169 = FACE_BOUND ( 'NONE', #62, .T. ) ;
#170 = DIRECTION ( 'NONE',  ( -4.275831445896958607E-31, -1.000000000000000000, -1.224646799147353207E-16 ) ) ;
#171 = MANIFOLD_SOLID_BREP ( 'Corps-Déplacer/Copier1[2]', #64 ) ;
#172 = APPROVAL_ROLE ( '' ) ;
#173 = VERTEX_POINT ( 'NONE', #18 ) ;
#174 = APPROVAL_STATUS ( 'not_yet_approved' ) ;
#175 = APPROVAL ( #204, 'UNSPECIFIED' ) ;
#176 = CC_DESIGN_APPROVAL ( #175, ( #222 ) ) ;
#177 = AXIS2_PLACEMENT_3D ( 'NONE', #212, #48, #28 ) ;
#178 = PERSON_AND_ORGANIZATION_ROLE ( 'classification_officer' ) ;
#179 = PRODUCT_DEFINITION_FORMATION_WITH_SPECIFIED_SOURCE ( 'ANY', '', #218, .NOT_KNOWN. ) ;
#180 = DIRECTION ( 'NONE',  ( 0.0000000000000000000, -1.000000000000000000, 0.0000000000000000000 ) ) ;
#181 = CARTESIAN_POINT ( 'NONE',  ( 3.491481338843133355E-14, -1.276467311168695364E-15, 10.00000000000000000 ) ) ;
#182 = CC_DESIGN_PERSON_AND_ORGANIZATION_ASSIGNMENT ( #53, #34, ( #222 ) ) ;
#183 = FACE_OUTER_BOUND ( 'NONE', #101, .T. ) ;
#184 = CIRCLE ( 'NONE', #163, 1.499999999999998224 ) ;
#185 = ORIENTED_EDGE ( 'NONE', *, *, #129, .F. ) ;
#186 = ADVANCED_FACE ( 'NONE', ( #114 ), #206, .F. ) ;
#187 = DIRECTION ( 'NONE',  ( -3.491481338843133355E-15, 1.224646799147353207E-16, -1.000000000000000000 ) ) ;
#188 = CIRCLE ( 'NONE', #132, 3.000000000000001332 ) ;
#189 = VERTEX_POINT ( 'NONE', #33 ) ;
#190 = PERSON_AND_ORGANIZATION ( #31, #149 ) ;
#191 = APPROVAL_ROLE ( '' ) ;
#192 = PERSON_AND_ORGANIZATION ( #31, #149 ) ;
#193 = SHAPE_DEFINITION_REPRESENTATION ( #77, #54 ) ;
#194 = ORIENTED_EDGE ( 'NONE', *, *, #129, .T. ) ;
#195 = AXIS2_PLACEMENT_3D ( 'NONE', #85, #104, #51 ) ;
#196 = DIRECTION ( 'NONE',  ( 3.491481338843133355E-15, -1.276467311168695266E-16, 1.000000000000000000 ) ) ;
#197 = CYLINDRICAL_SURFACE ( 'NONE', #13, 1.499999999999998446 ) ;
#198 = FACE_OUTER_BOUND ( 'NONE', #24, .T. ) ;
#199 = UNCERTAINTY_MEASURE_WITH_UNIT (LENGTH_MEASURE( 1.000000000000000082E-05 ), #35, 'distance_accuracy_value', 'NONE');
#200 = ORIENTED_EDGE ( 'NONE', *, *, #6, .T. ) ;
#201 = APPLICATION_CONTEXT ( 'configuration controlled 3d designs of mechanical parts and assemblies' ) ;
#202 = CARTESIAN_POINT ( 'NONE',  ( 2.084414359289350550E-13, -7.311141390909697496E-15, 59.69999999999999574 ) ) ;
#203 = MECHANICAL_CONTEXT ( 'NONE', #118, 'mechanical' ) ;
#204 = APPROVAL_STATUS ( 'not_yet_approved' ) ;
#205 = DATE_TIME_ROLE ( 'creation_date' ) ;
#206 = PLANE ( 'NONE',  #143 ) ;
#207 = CALENDAR_DATE ( 2021, 8, 12 ) ;
#208 = EDGE_LOOP ( 'NONE', ( #120 ) ) ;
#209 = PERSON_AND_ORGANIZATION ( #31, #149 ) ;
#210 = FACE_OUTER_BOUND ( 'NONE', #30, .T. ) ;
#211 = CC_DESIGN_PERSON_AND_ORGANIZATION_ASSIGNMENT ( #73, #140, ( #218 ) ) ;
#212 = CARTESIAN_POINT ( 'NONE',  ( 5.446039201379305096E-14, -1.991043440091054150E-15, 15.59807621135330002 ) ) ;
#213 = APPROVAL_PERSON_ORGANIZATION ( #23, #135, #38 ) ;
#214 = DIRECTION ( 'NONE',  ( -4.275831445896958607E-31, -1.000000000000000000, -1.224646799147353207E-16 ) ) ;
#215 = PLANE ( 'NONE',  #50 ) ;
#216 = DIRECTION ( 'NONE',  ( -4.275831445896958607E-31, -1.000000000000000000, -1.224646799147353207E-16 ) ) ;
#217 = APPROVAL_PERSON_ORGANIZATION ( #142, #175, #191 ) ;
#218 = PRODUCT ( '372591', '372591', '', ( #203 ) ) ;
#219 = DIRECTION ( 'NONE',  ( 0.0000000000000000000, 0.0000000000000000000, 1.000000000000000000 ) ) ;
#220 = CONICAL_SURFACE ( 'NONE', #195, 2.700000000000001510, 0.7853981633974453924 ) ;
#221 =( NAMED_UNIT ( * ) SI_UNIT ( $, .STERADIAN. ) SOLID_ANGLE_UNIT ( ) );
#222 = PRODUCT_DEFINITION ( 'UNKNOWN', '', #179, #47 ) ;
#223 = COORDINATED_UNIVERSAL_TIME_OFFSET ( 1, 0, .AHEAD. ) ;
ENDSEC;
END-ISO-10303-21;
