ISO-10303-21;
HEADER;
FILE_DESCRIPTION (( 'STEP AP203' ),
    '1' );
FILE_NAME ('372590.step',
    '2021-12-08T08:40:17',
    ( '' ),
    ( '' ),
    'SwSTEP 2.0',
    'SolidWorks 2019',
    '' );
FILE_SCHEMA (( 'CONFIG_CONTROL_DESIGN' ));
ENDSEC;

DATA;
#1 = LOCAL_TIME ( 9, 40, 17.00000000000000000, #16 ) ;
#2 = CARTESIAN_POINT ( 'NONE',  ( 1.735266225405037467E-13, 2.999999999999993783, 49.70000000000000284 ) ) ;
#3 = APPLICATION_CONTEXT ( 'configuration controlled 3d designs of mechanical parts and assemblies' ) ;
#4 = VERTEX_POINT ( 'NONE', #39 ) ;
#5 = DIRECTION ( 'NONE',  ( 3.491481338843133355E-15, -1.276467311168695266E-16, 1.000000000000000000 ) ) ;
#6 = ADVANCED_FACE ( 'NONE', ( #96 ), #41, .F. ) ;
#7 = FACE_OUTER_BOUND ( 'NONE', #211, .T. ) ;
#8 = EDGE_LOOP ( 'NONE', ( #220 ) ) ;
#9 = DIRECTION ( 'NONE',  ( -3.491481338843133355E-15, 1.224646799147353207E-16, -1.000000000000000000 ) ) ;
#10 = LOCAL_TIME ( 9, 40, 17.00000000000000000, #208 ) ;
#11 = FACE_OUTER_BOUND ( 'NONE', #8, .T. ) ;
#12 = AXIS2_PLACEMENT_3D ( 'NONE', #58, #5, #76 ) ;
#13 = MANIFOLD_SOLID_BREP ( 'Corps-Déplacer/Copier1[1]', #199 ) ;
#14 = CC_DESIGN_PERSON_AND_ORGANIZATION_ASSIGNMENT ( #176, #33, ( #116 ) ) ;
#15 = AXIS2_PLACEMENT_3D ( 'NONE', #118, #164, #29 ) ;
#16 = COORDINATED_UNIVERSAL_TIME_OFFSET ( 1, 0, .AHEAD. ) ;
#17 = CALENDAR_DATE ( 2021, 8, 12 ) ;
#18 = PERSON_AND_ORGANIZATION_ROLE ( 'classification_officer' ) ;
#19 = DIRECTION ( 'NONE',  ( 0.0000000000000000000, -1.000000000000000000, 0.0000000000000000000 ) ) ;
#20 = CARTESIAN_POINT ( 'NONE',  ( 3.491481338843133355E-14, -1.276467311168695364E-15, 10.00000000000000000 ) ) ;
#21 = SECURITY_CLASSIFICATION_LEVEL ( 'unclassified' ) ;
#22 = CARTESIAN_POINT ( 'NONE',  ( 3.491481338843133355E-14, 2.249639673992780938E-32, 10.00000000000000000 ) ) ;
#23 =( NAMED_UNIT ( * ) PLANE_ANGLE_UNIT ( ) SI_UNIT ( $, .RADIAN. ) );
#24 = VERTEX_POINT ( 'NONE', #2 ) ;
#25 = CIRCLE ( 'NONE', #65, 2.700000000000000178 ) ;
#26 = AXIS2_PLACEMENT_3D ( 'NONE', #167, #130, #180 ) ;
#27 = CARTESIAN_POINT ( 'NONE',  ( 5.446039201379303834E-14, -2.999999999999999556, 15.59807621135329647 ) ) ;
#28 = PERSON_AND_ORGANIZATION ( #61, #31 ) ;
#29 = DIRECTION ( 'NONE',  ( -4.275831445896958607E-31, -1.000000000000000000, -1.224646799147353207E-16 ) ) ;
#30 = CC_DESIGN_DATE_AND_TIME_ASSIGNMENT ( #138, #134, ( #116 ) ) ;
#31 = ORGANIZATION ( 'UNSPECIFIED', 'UNSPECIFIED', '' ) ;
#32 = DESIGN_CONTEXT ( 'detailed design', #3, 'design' ) ;
#33 = PERSON_AND_ORGANIZATION_ROLE ( 'creator' ) ;
#34 = PERSON_AND_ORGANIZATION ( #61, #31 ) ;
#35 = PRODUCT_DEFINITION_FORMATION_WITH_SPECIFIED_SOURCE ( 'ANY', '', #79, .NOT_KNOWN. ) ;
#36 = CARTESIAN_POINT ( 'NONE',  ( -6.413839710158237013E-31, 0.0000000000000000000, -1.836996703606440502E-16 ) ) ;
#37 = CARTESIAN_POINT ( 'NONE',  ( 1.745740669421566678E-13, 2.699999999999993960, 50.00000000000000000 ) ) ;
#38 = FACE_OUTER_BOUND ( 'NONE', #120, .T. ) ;
#39 = CARTESIAN_POINT ( 'NONE',  ( 3.491481338843133355E-14, -1.499999999999999556, 10.00000000000000000 ) ) ;
#40 = CIRCLE ( 'NONE', #123, 1.499999999999998224 ) ;
#41 = PLANE ( 'NONE',  #15 ) ;
#42 = ORIENTED_EDGE ( 'NONE', *, *, #214, .T. ) ;
#43 = PRODUCT_DEFINITION_SHAPE ( 'NONE', 'NONE',  #116 ) ;
#44 = ORIENTED_EDGE ( 'NONE', *, *, #202, .T. ) ;
#45 = DIRECTION ( 'NONE',  ( -3.491481338843133355E-15, 1.224646799147353207E-16, -1.000000000000000000 ) ) ;
#46 = ADVANCED_FACE ( 'NONE', ( #97 ), #131, .F. ) ;
#47 = DIRECTION ( 'NONE',  ( 0.0000000000000000000, -1.000000000000000000, 0.0000000000000000000 ) ) ;
#48 = EDGE_LOOP ( 'NONE', ( #201 ) ) ;
#49 = EDGE_CURVE ( 'NONE', #193, #193, #77, .T. ) ;
#50 = CARTESIAN_POINT ( 'NONE',  ( 1.745740669421566678E-13, -6.123233995736766085E-15, 50.00000000000000000 ) ) ;
#51 = CIRCLE ( 'NONE', #26, 3.000000000000000000 ) ;
#52 = APPROVAL_DATE_TIME ( #126, #194 ) ;
#53 = EDGE_CURVE ( 'NONE', #24, #24, #51, .T. ) ;
#54 = AXIS2_PLACEMENT_3D ( 'NONE', #50, #106, #122 ) ;
#55 = FACE_BOUND ( 'NONE', #48, .T. ) ;
#56 = DIRECTION ( 'NONE',  ( 1.000000000000000000, 0.0000000000000000000, 0.0000000000000000000 ) ) ;
#57 = EDGE_LOOP ( 'NONE', ( #44 ) ) ;
#58 = CARTESIAN_POINT ( 'NONE',  ( 1.000667421396370540E-13, -3.658387740909890592E-15, 28.66025403784433578 ) ) ;
#59 = DIRECTION ( 'NONE',  ( 0.0000000000000000000, 0.0000000000000000000, 1.000000000000000000 ) ) ;
#60 = EDGE_LOOP ( 'NONE', ( #98 ) ) ;
#61 = PERSON ( 'UNSPECIFIED', 'UNSPECIFIED', 'UNSPECIFIED', ('UNSPECIFIED'), ('UNSPECIFIED'), ('UNSPECIFIED') ) ;
#62 = DIRECTION ( 'NONE',  ( 4.275831445896958607E-31, 1.000000000000000000, 1.224646799147353207E-16 ) ) ;
#63 = SECURITY_CLASSIFICATION ( '', '', #21 ) ;
#64 = APPROVAL_ROLE ( '' ) ;
#65 = AXIS2_PLACEMENT_3D ( 'NONE', #195, #212, #111 ) ;
#66 = DATE_AND_TIME ( #17, #168 ) ;
#67 = PRODUCT_RELATED_PRODUCT_CATEGORY ( 'detail', '', ( #79 ) ) ;
#68 = PERSON_AND_ORGANIZATION ( #61, #31 ) ;
#69 = CARTESIAN_POINT ( 'NONE',  ( -2.699534206289368904E-30, 7.524489584330193151E-32, -7.731773262702964654E-16 ) ) ;
#70 = CALENDAR_DATE ( 2021, 8, 12 ) ;
#71 = DIRECTION ( 'NONE',  ( -4.275831445896958607E-31, -1.000000000000000000, -1.224646799147353207E-16 ) ) ;
#72 = APPROVAL_STATUS ( 'not_yet_approved' ) ;
#73 = UNCERTAINTY_MEASURE_WITH_UNIT (LENGTH_MEASURE( 1.000000000000000082E-05 ), #142, 'distance_accuracy_value', 'NONE');
#74 = VERTEX_POINT ( 'NONE', #178 ) ;
#75 = DIRECTION ( 'NONE',  ( 3.491481338843133355E-15, -1.276467311168695266E-16, 1.000000000000000000 ) ) ;
#76 = DIRECTION ( 'NONE',  ( 0.0000000000000000000, -1.000000000000000000, 0.0000000000000000000 ) ) ;
#77 = CIRCLE ( 'NONE', #203, 2.999999999999997335 ) ;
#78 = APPLICATION_PROTOCOL_DEFINITION ( 'international standard', 'config_control_design', 1994, #3 ) ;
#79 = PRODUCT ( '372590', '372590', '', ( #115 ) ) ;
#80 = ORIENTED_EDGE ( 'NONE', *, *, #169, .F. ) ;
#81 = CC_DESIGN_PERSON_AND_ORGANIZATION_ASSIGNMENT ( #34, #125, ( #35 ) ) ;
#82 = FACE_OUTER_BOUND ( 'NONE', #150, .T. ) ;
#83 = ORIENTED_EDGE ( 'NONE', *, *, #189, .F. ) ;
#84 = APPROVAL ( #156, 'UNSPECIFIED' ) ;
#85 = DIRECTION ( 'NONE',  ( 3.491481338843133355E-15, -1.276467311168695266E-16, 1.000000000000000000 ) ) ;
#86 = ADVANCED_FACE ( 'NONE', ( #11, #82 ), #217, .T. ) ;
#87 = MANIFOLD_SOLID_BREP ( 'Corps-Déplacer/Copier1[2]', #110 ) ;
#88 = APPROVAL_DATE_TIME ( #139, #84 ) ;
#89 = PERSON_AND_ORGANIZATION ( #61, #31 ) ;
#90 = AXIS2_PLACEMENT_3D ( 'NONE', #145, #59, #56 ) ;
#91 = PERSON_AND_ORGANIZATION ( #61, #31 ) ;
#92 = DATE_AND_TIME ( #70, #10 ) ;
#93 = DIRECTION ( 'NONE',  ( 3.491481338843133355E-15, -1.224646799147353207E-16, 1.000000000000000000 ) ) ;
#94 = APPROVAL_ROLE ( '' ) ;
#95 = ADVANCED_FACE ( 'NONE', ( #132, #221 ), #127, .T. ) ;
#96 = FACE_OUTER_BOUND ( 'NONE', #102, .T. ) ;
#97 = FACE_OUTER_BOUND ( 'NONE', #166, .T. ) ;
#98 = ORIENTED_EDGE ( 'NONE', *, *, #53, .F. ) ;
#99 = CARTESIAN_POINT ( 'NONE',  ( 0.0000000000000000000, 0.0000000000000000000, 0.0000000000000000000 ) ) ;
#100 = CARTESIAN_POINT ( 'NONE',  ( 1.745740669421566678E-13, 2.024675706593498739E-32, 50.00000000000000000 ) ) ;
#101 = AXIS2_PLACEMENT_3D ( 'NONE', #20, #75, #162 ) ;
#102 = EDGE_LOOP ( 'NONE', ( #83 ) ) ;
#103 = FACE_OUTER_BOUND ( 'NONE', #215, .T. ) ;
#104 = AXIS2_PLACEMENT_3D ( 'NONE', #99, #45, #62 ) ;
#105 = APPROVAL_PERSON_ORGANIZATION ( #89, #209, #174 ) ;
#106 = DIRECTION ( 'NONE',  ( -3.491481338843133355E-15, 1.224646799147353207E-16, -1.000000000000000000 ) ) ;
#107 = CALENDAR_DATE ( 2021, 8, 12 ) ;
#108 = DIRECTION ( 'NONE',  ( -4.456761796588771413E-31, -1.000000000000000000, -1.276467311168695019E-16 ) ) ;
#109 = PERSON_AND_ORGANIZATION ( #61, #31 ) ;
#110 = CLOSED_SHELL ( 'NONE', ( #112, #204, #6 ) ) ;
#111 = DIRECTION ( 'NONE',  ( 0.0000000000000000000, 1.000000000000000000, 0.0000000000000000000 ) ) ;
#112 = ADVANCED_FACE ( 'NONE', ( #173 ), #192, .T. ) ;
#113 = CYLINDRICAL_SURFACE ( 'NONE', #171, 1.499999999999998446 ) ;
#114 = LOCAL_TIME ( 9, 40, 17.00000000000000000, #188 ) ;
#115 = MECHANICAL_CONTEXT ( 'NONE', #159, 'mechanical' ) ;
#116 = PRODUCT_DEFINITION ( 'UNKNOWN', '', #35, #32 ) ;
#117 = ORIENTED_EDGE ( 'NONE', *, *, #214, .F. ) ;
#118 = CARTESIAN_POINT ( 'NONE',  ( -4.275870630573526707E-31, 1.499773526796246047E-32, -1.224658022084773030E-16 ) ) ;
#119 = DIRECTION ( 'NONE',  ( -3.491481338843133355E-15, 1.276467311168695266E-16, -1.000000000000000000 ) ) ;
#120 = EDGE_LOOP ( 'NONE', ( #197 ) ) ;
#121 = LOCAL_TIME ( 9, 40, 17.00000000000000000, #191 ) ;
#122 = DIRECTION ( 'NONE',  ( 0.0000000000000000000, 1.000000000000000000, 0.0000000000000000000 ) ) ;
#123 = AXIS2_PLACEMENT_3D ( 'NONE', #186, #136, #19 ) ;
#124 = APPROVAL_STATUS ( 'not_yet_approved' ) ;
#125 = PERSON_AND_ORGANIZATION_ROLE ( 'design_supplier' ) ;
#126 = DATE_AND_TIME ( #190, #121 ) ;
#127 = CONICAL_SURFACE ( 'NONE', #54, 2.700000000000000178, 0.7853981633974453924 ) ;
#128 = CARTESIAN_POINT ( 'NONE',  ( 3.491481338843133355E-14, -1.499999999999999556, 10.00000000000000000 ) ) ;
#129 = ORIENTED_EDGE ( 'NONE', *, *, #202, .F. ) ;
#130 = DIRECTION ( 'NONE',  ( -3.491481338843133355E-15, 1.224646799147353207E-16, -1.000000000000000000 ) ) ;
#131 = PLANE ( 'NONE',  #141 ) ;
#132 = FACE_OUTER_BOUND ( 'NONE', #60, .T. ) ;
#133 = CC_DESIGN_APPROVAL ( #84, ( #63 ) ) ;
#134 = DATE_TIME_ROLE ( 'creation_date' ) ;
#135 = CIRCLE ( 'NONE', #183, 1.499999999999998668 ) ;
#136 = DIRECTION ( 'NONE',  ( 3.491481338843133355E-15, -1.276467311168695266E-16, 1.000000000000000000 ) ) ;
#137 = ADVANCED_FACE ( 'NONE', ( #55, #38 ), #219, .T. ) ;
#138 = DATE_AND_TIME ( #107, #114 ) ;
#139 = DATE_AND_TIME ( #140, #1 ) ;
#140 = CALENDAR_DATE ( 2021, 8, 12 ) ;
#141 = AXIS2_PLACEMENT_3D ( 'NONE', #200, #170, #181 ) ;
#142 =( LENGTH_UNIT ( ) NAMED_UNIT ( * ) SI_UNIT ( .MILLI., .METRE. ) );
#143 = DIRECTION ( 'NONE',  ( 3.491481338843133355E-15, -1.276467311168695266E-16, 1.000000000000000000 ) ) ;
#144 = FACE_OUTER_BOUND ( 'NONE', #146, .T. ) ;
#145 = CARTESIAN_POINT ( 'NONE',  ( 0.0000000000000000000, 0.0000000000000000000, 0.0000000000000000000 ) ) ;
#146 = EDGE_LOOP ( 'NONE', ( #117 ) ) ;
#147 = APPROVAL_PERSON_ORGANIZATION ( #91, #84, #64 ) ;
#148 = EDGE_LOOP ( 'NONE', ( #42 ) ) ;
#149 = CIRCLE ( 'NONE', #101, 1.499999999999998224 ) ;
#150 = EDGE_LOOP ( 'NONE', ( #182 ) ) ;
#151 = CC_DESIGN_DATE_AND_TIME_ASSIGNMENT ( #92, #153, ( #63 ) ) ;
#152 = ADVANCED_BREP_SHAPE_REPRESENTATION ( '372590', ( #13, #87, #90 ), #179 ) ;
#153 = DATE_TIME_ROLE ( 'classification_date' ) ;
#154 = APPROVAL_DATE_TIME ( #66, #209 ) ;
#155 = ADVANCED_FACE ( 'NONE', ( #144 ), #198, .F. ) ;
#156 = APPROVAL_STATUS ( 'not_yet_approved' ) ;
#157 = APPROVAL_PERSON_ORGANIZATION ( #213, #194, #94 ) ;
#158 =( NAMED_UNIT ( * ) SI_UNIT ( $, .STERADIAN. ) SOLID_ANGLE_UNIT ( ) );
#159 = APPLICATION_CONTEXT ( 'configuration controlled 3d designs of mechanical parts and assemblies' ) ;
#160 = APPLICATION_PROTOCOL_DEFINITION ( 'international standard', 'config_control_design', 1994, #159 ) ;
#161 = DIRECTION ( 'NONE',  ( -4.456761796588770537E-31, -1.000000000000000000, -1.276467311168695512E-16 ) ) ;
#162 = DIRECTION ( 'NONE',  ( 0.0000000000000000000, -1.000000000000000000, 0.0000000000000000000 ) ) ;
#163 = CC_DESIGN_PERSON_AND_ORGANIZATION_ASSIGNMENT ( #68, #206, ( #35 ) ) ;
#164 = DIRECTION ( 'NONE',  ( 3.491481338843133355E-15, -1.224646799147353207E-16, 1.000000000000000000 ) ) ;
#165 = PERSON_AND_ORGANIZATION_ROLE ( 'design_owner' ) ;
#166 = EDGE_LOOP ( 'NONE', ( #80 ) ) ;
#167 = CARTESIAN_POINT ( 'NONE',  ( 1.735266225405037467E-13, -6.086494591762345225E-15, 49.70000000000000284 ) ) ;
#168 = LOCAL_TIME ( 9, 40, 17.00000000000000000, #207 ) ;
#169 = EDGE_CURVE ( 'NONE', #177, #177, #40, .T. ) ;
#170 = DIRECTION ( 'NONE',  ( 3.491481338843133355E-15, -1.224646799147353207E-16, 1.000000000000000000 ) ) ;
#171 = AXIS2_PLACEMENT_3D ( 'NONE', #36, #143, #161 ) ;
#172 = ORIENTED_EDGE ( 'NONE', *, *, #189, .T. ) ;
#173 = FACE_OUTER_BOUND ( 'NONE', #57, .T. ) ;
#174 = APPROVAL_ROLE ( '' ) ;
#175 = CC_DESIGN_PERSON_AND_ORGANIZATION_ASSIGNMENT ( #109, #18, ( #63 ) ) ;
#176 = PERSON_AND_ORGANIZATION ( #61, #31 ) ;
#177 = VERTEX_POINT ( 'NONE', #128 ) ;
#178 = CARTESIAN_POINT ( 'NONE',  ( -3.368048475777683653E-30, -1.499999999999998668, -9.646474229456005827E-16 ) ) ;
#179 =( GEOMETRIC_REPRESENTATION_CONTEXT ( 3 ) GLOBAL_UNCERTAINTY_ASSIGNED_CONTEXT ( ( #73 ) ) GLOBAL_UNIT_ASSIGNED_CONTEXT ( ( #142, #23, #158 ) ) REPRESENTATION_CONTEXT ( 'NONE', 'WORKASPACE' ) );
#180 = DIRECTION ( 'NONE',  ( 0.0000000000000000000, 1.000000000000000000, 0.0000000000000000000 ) ) ;
#181 = DIRECTION ( 'NONE',  ( -4.275831445896958607E-31, -1.000000000000000000, -1.224646799147353207E-16 ) ) ;
#182 = ORIENTED_EDGE ( 'NONE', *, *, #49, .F. ) ;
#183 = AXIS2_PLACEMENT_3D ( 'NONE', #69, #85, #108 ) ;
#184 = CC_DESIGN_SECURITY_CLASSIFICATION ( #63, ( #35 ) ) ;
#185 = CC_DESIGN_PERSON_AND_ORGANIZATION_ASSIGNMENT ( #28, #165, ( #79 ) ) ;
#186 = CARTESIAN_POINT ( 'NONE',  ( 3.491481338843133355E-14, -1.276467311168695364E-15, 10.00000000000000000 ) ) ;
#187 = SHAPE_DEFINITION_REPRESENTATION ( #43, #152 ) ;
#188 = COORDINATED_UNIVERSAL_TIME_OFFSET ( 1, 0, .AHEAD. ) ;
#189 = EDGE_CURVE ( 'NONE', #74, #74, #135, .T. ) ;
#190 = CALENDAR_DATE ( 2021, 8, 12 ) ;
#191 = COORDINATED_UNIVERSAL_TIME_OFFSET ( 1, 0, .AHEAD. ) ;
#192 = PLANE ( 'NONE',  #222 ) ;
#193 = VERTEX_POINT ( 'NONE', #27 ) ;
#194 = APPROVAL ( #72, 'UNSPECIFIED' ) ;
#195 = CARTESIAN_POINT ( 'NONE',  ( 1.745740669421566678E-13, -6.123233995736766085E-15, 50.00000000000000000 ) ) ;
#196 = AXIS2_PLACEMENT_3D ( 'NONE', #100, #9, #216 ) ;
#197 = ORIENTED_EDGE ( 'NONE', *, *, #49, .T. ) ;
#198 = PLANE ( 'NONE',  #196 ) ;
#199 = CLOSED_SHELL ( 'NONE', ( #86, #95, #155, #137, #46 ) ) ;
#200 = CARTESIAN_POINT ( 'NONE',  ( 3.491481338843133355E-14, 2.249639673992780938E-32, 10.00000000000000000 ) ) ;
#201 = ORIENTED_EDGE ( 'NONE', *, *, #169, .T. ) ;
#202 = EDGE_CURVE ( 'NONE', #4, #4, #149, .T. ) ;
#203 = AXIS2_PLACEMENT_3D ( 'NONE', #218, #119, #47 ) ;
#204 = ADVANCED_FACE ( 'NONE', ( #7, #103 ), #113, .T. ) ;
#205 = CC_DESIGN_APPROVAL ( #194, ( #116 ) ) ;
#206 = PERSON_AND_ORGANIZATION_ROLE ( 'creator' ) ;
#207 = COORDINATED_UNIVERSAL_TIME_OFFSET ( 1, 0, .AHEAD. ) ;
#208 = COORDINATED_UNIVERSAL_TIME_OFFSET ( 1, 0, .AHEAD. ) ;
#209 = APPROVAL ( #124, 'UNSPECIFIED' ) ;
#210 = VERTEX_POINT ( 'NONE', #37 ) ;
#211 = EDGE_LOOP ( 'NONE', ( #172 ) ) ;
#212 = DIRECTION ( 'NONE',  ( -3.491481338843133355E-15, 1.224646799147353207E-16, -1.000000000000000000 ) ) ;
#213 = PERSON_AND_ORGANIZATION ( #61, #31 ) ;
#214 = EDGE_CURVE ( 'NONE', #210, #210, #25, .T. ) ;
#215 = EDGE_LOOP ( 'NONE', ( #129 ) ) ;
#216 = DIRECTION ( 'NONE',  ( 4.275831445896958607E-31, 1.000000000000000000, 1.224646799147353207E-16 ) ) ;
#217 = CYLINDRICAL_SURFACE ( 'NONE', #104, 2.999999999999997335 ) ;
#218 = CARTESIAN_POINT ( 'NONE',  ( 5.446039201379303834E-14, -1.991043440091053361E-15, 15.59807621135329647 ) ) ;
#219 = CONICAL_SURFACE ( 'NONE', #12, 6.499999999999999112, 0.2617993877991501850 ) ;
#220 = ORIENTED_EDGE ( 'NONE', *, *, #53, .T. ) ;
#221 = FACE_BOUND ( 'NONE', #148, .T. ) ;
#222 = AXIS2_PLACEMENT_3D ( 'NONE', #22, #93, #71 ) ;
#223 = CC_DESIGN_APPROVAL ( #209, ( #35 ) ) ;
ENDSEC;
END-ISO-10303-21;
