ISO-10303-21;
HEADER;
FILE_DESCRIPTION (( 'STEP AP203' ),
    '1' );
FILE_NAME ('372589.step',
    '2021-12-08T08:40:17',
    ( '' ),
    ( '' ),
    'SwSTEP 2.0',
    'SolidWorks 2019',
    '' );
FILE_SCHEMA (( 'CONFIG_CONTROL_DESIGN' ));
ENDSEC;

DATA;
#1 = ORIENTED_EDGE ( 'NONE', *, *, #195, .F. ) ;
#2 = CARTESIAN_POINT ( 'NONE',  ( 5.237222008264700033E-14, 1.499759782661852408E-32, 15.00000000000000000 ) ) ;
#3 = ORIENTED_EDGE ( 'NONE', *, *, #129, .F. ) ;
#4 = APPROVAL_PERSON_ORGANIZATION ( #25, #53, #130 ) ;
#5 = EDGE_LOOP ( 'NONE', ( #135 ) ) ;
#6 = CARTESIAN_POINT ( 'NONE',  ( 5.237222008264700033E-14, -1.500000000000000888, 15.00000000000000000 ) ) ;
#7 = FACE_OUTER_BOUND ( 'NONE', #89, .T. ) ;
#8 = FACE_OUTER_BOUND ( 'NONE', #221, .T. ) ;
#9 = APPROVAL_ROLE ( '' ) ;
#10 = APPROVAL ( #157, 'UNSPECIFIED' ) ;
#11 = FACE_OUTER_BOUND ( 'NONE', #76, .T. ) ;
#12 = LOCAL_TIME ( 9, 40, 17.00000000000000000, #127 ) ;
#13 = UNCERTAINTY_MEASURE_WITH_UNIT (LENGTH_MEASURE( 1.000000000000000082E-05 ), #58, 'distance_accuracy_value', 'NONE');
#14 = APPLICATION_CONTEXT ( 'configuration controlled 3d designs of mechanical parts and assemblies' ) ;
#15 = MANIFOLD_SOLID_BREP ( 'Corps-Déplacer/Copier1[2]', #82 ) ;
#16 = FACE_BOUND ( 'NONE', #206, .T. ) ;
#17 = AXIS2_PLACEMENT_3D ( 'NONE', #185, #103, #162 ) ;
#18 = DIRECTION ( 'NONE',  ( 0.0000000000000000000, -1.000000000000000000, 0.0000000000000000000 ) ) ;
#19 = ORIENTED_EDGE ( 'NONE', *, *, #212, .F. ) ;
#20 = DIRECTION ( 'NONE',  ( -3.491481338843133355E-15, 1.224646799147353207E-16, -1.000000000000000000 ) ) ;
#21 = CARTESIAN_POINT ( 'NONE',  ( -3.206869002844700179E-31, 1.124818229995149000E-32, -9.184837871444168754E-17 ) ) ;
#22 = CARTESIAN_POINT ( 'NONE',  ( 0.0000000000000000000, 0.0000000000000000000, 0.0000000000000000000 ) ) ;
#23 =( GEOMETRIC_REPRESENTATION_CONTEXT ( 3 ) GLOBAL_UNCERTAINTY_ASSIGNED_CONTEXT ( ( #13 ) ) GLOBAL_UNIT_ASSIGNED_CONTEXT ( ( #58, #189, #110 ) ) REPRESENTATION_CONTEXT ( 'NONE', 'WORKASPACE' ) );
#24 = PERSON_AND_ORGANIZATION ( #201, #111 ) ;
#25 = PERSON_AND_ORGANIZATION ( #201, #111 ) ;
#26 = FACE_BOUND ( 'NONE', #5, .T. ) ;
#27 = AXIS2_PLACEMENT_3D ( 'NONE', #113, #178, #38 ) ;
#28 = COORDINATED_UNIVERSAL_TIME_OFFSET ( 1, 0, .AHEAD. ) ;
#29 = DIRECTION ( 'NONE',  ( 0.0000000000000000000, -1.000000000000000000, 0.0000000000000000000 ) ) ;
#30 = DESIGN_CONTEXT ( 'detailed design', #14, 'design' ) ;
#31 = ORIENTED_EDGE ( 'NONE', *, *, #69, .T. ) ;
#32 = LOCAL_TIME ( 9, 40, 17.00000000000000000, #45 ) ;
#33 = FACE_OUTER_BOUND ( 'NONE', #180, .T. ) ;
#34 = ADVANCED_FACE ( 'NONE', ( #188 ), #81, .F. ) ;
#35 = CARTESIAN_POINT ( 'NONE',  ( 1.175241488338527082E-13, -4.296621396494237190E-15, 33.66025403784433223 ) ) ;
#36 = CARTESIAN_POINT ( 'NONE',  ( 5.888741295776756228E-14, -2.000000000000000888, 16.86602540378443393 ) ) ;
#37 = DIRECTION ( 'NONE',  ( 3.491481338843133355E-15, -1.224646799147353207E-16, 1.000000000000000000 ) ) ;
#38 = DIRECTION ( 'NONE',  ( 4.275831445896957731E-31, 1.000000000000000000, 1.224646799147353207E-16 ) ) ;
#39 = CC_DESIGN_DATE_AND_TIME_ASSIGNMENT ( #62, #99, ( #191 ) ) ;
#40 = VERTEX_POINT ( 'NONE', #108 ) ;
#41 = AXIS2_PLACEMENT_3D ( 'NONE', #35, #133, #29 ) ;
#42 = DIRECTION ( 'NONE',  ( 0.0000000000000000000, -1.000000000000000000, 0.0000000000000000000 ) ) ;
#43 = CC_DESIGN_PERSON_AND_ORGANIZATION_ASSIGNMENT ( #77, #176, ( #204 ) ) ;
#44 = PERSON_AND_ORGANIZATION_ROLE ( 'design_supplier' ) ;
#45 = COORDINATED_UNIVERSAL_TIME_OFFSET ( 1, 0, .AHEAD. ) ;
#46 = DIRECTION ( 'NONE',  ( 3.491481338843133355E-15, -1.276467311168695266E-16, 1.000000000000000000 ) ) ;
#47 = PERSON_AND_ORGANIZATION_ROLE ( 'creator' ) ;
#48 = ADVANCED_FACE ( 'NONE', ( #68 ), #70, .F. ) ;
#49 = EDGE_LOOP ( 'NONE', ( #97 ) ) ;
#50 = ORIENTED_EDGE ( 'NONE', *, *, #212, .T. ) ;
#51 = DIRECTION ( 'NONE',  ( 3.491481338843133355E-15, -1.224646799147353207E-16, 1.000000000000000000 ) ) ;
#52 = AXIS2_PLACEMENT_3D ( 'NONE', #171, #87, #71 ) ;
#53 = APPROVAL ( #65, 'UNSPECIFIED' ) ;
#54 = ORIENTED_EDGE ( 'NONE', *, *, #195, .T. ) ;
#55 = APPLICATION_PROTOCOL_DEFINITION ( 'international standard', 'config_control_design', 1994, #14 ) ;
#56 = CARTESIAN_POINT ( 'NONE',  ( 1.745740669421566678E-13, 1.699999999999995293, 50.00000000000000000 ) ) ;
#57 = CC_DESIGN_SECURITY_CLASSIFICATION ( #191, ( #215 ) ) ;
#58 =( LENGTH_UNIT ( ) NAMED_UNIT ( * ) SI_UNIT ( .MILLI., .METRE. ) );
#59 = DIRECTION ( 'NONE',  ( 0.0000000000000000000, 1.000000000000000000, 0.0000000000000000000 ) ) ;
#60 = DIRECTION ( 'NONE',  ( 0.0000000000000000000, 0.0000000000000000000, 1.000000000000000000 ) ) ;
#61 = ADVANCED_FACE ( 'NONE', ( #11, #26 ), #75, .T. ) ;
#62 = DATE_AND_TIME ( #181, #32 ) ;
#63 = COORDINATED_UNIVERSAL_TIME_OFFSET ( 1, 0, .AHEAD. ) ;
#64 = PRODUCT_RELATED_PRODUCT_CATEGORY ( 'detail', '', ( #204 ) ) ;
#65 = APPROVAL_STATUS ( 'not_yet_approved' ) ;
#66 = CARTESIAN_POINT ( 'NONE',  ( 5.237222008264700033E-14, 1.499759782661852408E-32, 15.00000000000000000 ) ) ;
#67 = SECURITY_CLASSIFICATION_LEVEL ( 'unclassified' ) ;
#68 = FACE_OUTER_BOUND ( 'NONE', #205, .T. ) ;
#69 = EDGE_CURVE ( 'NONE', #107, #107, #78, .T. ) ;
#70 = PLANE ( 'NONE',  #207 ) ;
#71 = DIRECTION ( 'NONE',  ( -4.456761796588770537E-31, -1.000000000000000000, -1.276467311168695512E-16 ) ) ;
#72 = CARTESIAN_POINT ( 'NONE',  ( 1.745740669421566678E-13, 1.274795815262571030E-32, 50.00000000000000000 ) ) ;
#73 = CYLINDRICAL_SURFACE ( 'NONE', #27, 1.999999999999998668 ) ;
#74 = VERTEX_POINT ( 'NONE', #90 ) ;
#75 = CONICAL_SURFACE ( 'NONE', #17, 1.700000000000001510, 0.7853981633974453924 ) ;
#76 = EDGE_LOOP ( 'NONE', ( #120 ) ) ;
#77 = PERSON_AND_ORGANIZATION ( #201, #111 ) ;
#78 = CIRCLE ( 'NONE', #186, 1.999999999999998668 ) ;
#79 = APPROVAL_DATE_TIME ( #200, #10 ) ;
#80 = CLOSED_SHELL ( 'NONE', ( #183, #61, #34, #109, #48 ) ) ;
#81 = PLANE ( 'NONE',  #218 ) ;
#82 = CLOSED_SHELL ( 'NONE', ( #128, #141, #170 ) ) ;
#83 = CIRCLE ( 'NONE', #121, 1.700000000000001510 ) ;
#84 = CALENDAR_DATE ( 2021, 8, 12 ) ;
#85 = EDGE_LOOP ( 'NONE', ( #153 ) ) ;
#86 = FACE_OUTER_BOUND ( 'NONE', #198, .T. ) ;
#87 = DIRECTION ( 'NONE',  ( 3.491481338843133355E-15, -1.276467311168695266E-16, 1.000000000000000000 ) ) ;
#88 = CC_DESIGN_APPROVAL ( #53, ( #191 ) ) ;
#89 = EDGE_LOOP ( 'NONE', ( #1 ) ) ;
#90 = CARTESIAN_POINT ( 'NONE',  ( 5.237222008264700033E-14, -1.500000000000000888, 15.00000000000000000 ) ) ;
#91 = MECHANICAL_CONTEXT ( 'NONE', #168, 'mechanical' ) ;
#92 = DIRECTION ( 'NONE',  ( -4.275831445896958607E-31, -1.000000000000000000, -1.224646799147353207E-16 ) ) ;
#93 = AXIS2_PLACEMENT_3D ( 'NONE', #101, #46, #122 ) ;
#94 = CC_DESIGN_PERSON_AND_ORGANIZATION_ASSIGNMENT ( #194, #118, ( #191 ) ) ;
#95 = DIRECTION ( 'NONE',  ( -3.491481338843133355E-15, 1.224646799147353207E-16, -1.000000000000000000 ) ) ;
#96 = LOCAL_TIME ( 9, 40, 17.00000000000000000, #216 ) ;
#97 = ORIENTED_EDGE ( 'NONE', *, *, #69, .F. ) ;
#98 = LOCAL_TIME ( 9, 40, 17.00000000000000000, #63 ) ;
#99 = DATE_TIME_ROLE ( 'classification_date' ) ;
#100 = ADVANCED_BREP_SHAPE_REPRESENTATION ( '372589', ( #158, #15, #182 ), #23 ) ;
#101 = CARTESIAN_POINT ( 'NONE',  ( 5.237222008264700033E-14, -1.914700966753042948E-15, 15.00000000000000000 ) ) ;
#102 = LOCAL_TIME ( 9, 40, 17.00000000000000000, #28 ) ;
#103 = DIRECTION ( 'NONE',  ( -3.491481338843133355E-15, 1.224646799147353207E-16, -1.000000000000000000 ) ) ;
#104 = CC_DESIGN_PERSON_AND_ORGANIZATION_ASSIGNMENT ( #114, #179, ( #215 ) ) ;
#105 = CYLINDRICAL_SURFACE ( 'NONE', #52, 1.499999999999998668 ) ;
#106 = DIRECTION ( 'NONE',  ( 3.491481338843133355E-15, -1.224646799147353207E-16, 1.000000000000000000 ) ) ;
#107 = VERTEX_POINT ( 'NONE', #36 ) ;
#108 = CARTESIAN_POINT ( 'NONE',  ( 1.735266225405037467E-13, 1.999999999999995337, 49.70000000000000284 ) ) ;
#109 = ADVANCED_FACE ( 'NONE', ( #16, #33 ), #210, .T. ) ;
#110 =( NAMED_UNIT ( * ) SI_UNIT ( $, .STERADIAN. ) SOLID_ANGLE_UNIT ( ) );
#111 = ORGANIZATION ( 'UNSPECIFIED', 'UNSPECIFIED', '' ) ;
#112 = AXIS2_PLACEMENT_3D ( 'NONE', #214, #156, #190 ) ;
#113 = CARTESIAN_POINT ( 'NONE',  ( 0.0000000000000000000, 0.0000000000000000000, 0.0000000000000000000 ) ) ;
#114 = PERSON_AND_ORGANIZATION ( #201, #111 ) ;
#115 = DATE_AND_TIME ( #84, #98 ) ;
#116 = CIRCLE ( 'NONE', #144, 1.499999999999998890 ) ;
#117 = DIRECTION ( 'NONE',  ( 0.0000000000000000000, 1.000000000000000000, 0.0000000000000000000 ) ) ;
#118 = PERSON_AND_ORGANIZATION_ROLE ( 'classification_officer' ) ;
#119 = DIRECTION ( 'NONE',  ( -3.491481338843133355E-15, 1.224646799147353207E-16, -1.000000000000000000 ) ) ;
#120 = ORIENTED_EDGE ( 'NONE', *, *, #165, .F. ) ;
#121 = AXIS2_PLACEMENT_3D ( 'NONE', #155, #95, #59 ) ;
#122 = DIRECTION ( 'NONE',  ( 0.0000000000000000000, -1.000000000000000000, 0.0000000000000000000 ) ) ;
#123 = PLANE ( 'NONE',  #159 ) ;
#124 = DIRECTION ( 'NONE',  ( 1.000000000000000000, 0.0000000000000000000, 0.0000000000000000000 ) ) ;
#125 = APPROVAL_PERSON_ORGANIZATION ( #24, #10, #9 ) ;
#126 = APPLICATION_PROTOCOL_DEFINITION ( 'international standard', 'config_control_design', 1994, #168 ) ;
#127 = COORDINATED_UNIVERSAL_TIME_OFFSET ( 1, 0, .AHEAD. ) ;
#128 = ADVANCED_FACE ( 'NONE', ( #86 ), #123, .T. ) ;
#129 = EDGE_CURVE ( 'NONE', #74, #74, #148, .T. ) ;
#130 = APPROVAL_ROLE ( '' ) ;
#131 = CC_DESIGN_DATE_AND_TIME_ASSIGNMENT ( #146, #147, ( #177 ) ) ;
#132 = CALENDAR_DATE ( 2021, 8, 12 ) ;
#133 = DIRECTION ( 'NONE',  ( 3.491481338843133355E-15, -1.276467311168695266E-16, 1.000000000000000000 ) ) ;
#134 = DIRECTION ( 'NONE',  ( -4.275831445896958607E-31, -1.000000000000000000, -1.224646799147353207E-16 ) ) ;
#135 = ORIENTED_EDGE ( 'NONE', *, *, #222, .T. ) ;
#136 = APPROVAL_PERSON_ORGANIZATION ( #196, #138, #164 ) ;
#137 = ORIENTED_EDGE ( 'NONE', *, *, #165, .T. ) ;
#138 = APPROVAL ( #217, 'UNSPECIFIED' ) ;
#139 = VERTEX_POINT ( 'NONE', #6 ) ;
#140 = CC_DESIGN_APPROVAL ( #138, ( #215 ) ) ;
#141 = ADVANCED_FACE ( 'NONE', ( #187, #167 ), #105, .T. ) ;
#142 = CALENDAR_DATE ( 2021, 8, 12 ) ;
#143 = PERSON_AND_ORGANIZATION ( #201, #111 ) ;
#144 = AXIS2_PLACEMENT_3D ( 'NONE', #174, #173, #42 ) ;
#145 = CC_DESIGN_PERSON_AND_ORGANIZATION_ASSIGNMENT ( #143, #44, ( #215 ) ) ;
#146 = DATE_AND_TIME ( #132, #96 ) ;
#147 = DATE_TIME_ROLE ( 'creation_date' ) ;
#148 = CIRCLE ( 'NONE', #93, 1.499999999999998890 ) ;
#149 = APPROVAL_DATE_TIME ( #115, #53 ) ;
#150 = EDGE_LOOP ( 'NONE', ( #54 ) ) ;
#151 = EDGE_LOOP ( 'NONE', ( #19 ) ) ;
#152 = ORIENTED_EDGE ( 'NONE', *, *, #129, .T. ) ;
#153 = ORIENTED_EDGE ( 'NONE', *, *, #222, .F. ) ;
#154 = VERTEX_POINT ( 'NONE', #213 ) ;
#155 = CARTESIAN_POINT ( 'NONE',  ( 1.745740669421566678E-13, -6.123233995736766085E-15, 50.00000000000000000 ) ) ;
#156 = DIRECTION ( 'NONE',  ( 3.491481338843133355E-15, -1.276467311168695266E-16, 1.000000000000000000 ) ) ;
#157 = APPROVAL_STATUS ( 'not_yet_approved' ) ;
#158 = MANIFOLD_SOLID_BREP ( 'Corps-Déplacer/Copier1[1]', #80 ) ;
#159 = AXIS2_PLACEMENT_3D ( 'NONE', #2, #51, #184 ) ;
#160 = CALENDAR_DATE ( 2021, 8, 12 ) ;
#161 = SHAPE_DEFINITION_REPRESENTATION ( #223, #100 ) ;
#162 = DIRECTION ( 'NONE',  ( 0.0000000000000000000, 1.000000000000000000, 0.0000000000000000000 ) ) ;
#163 = CIRCLE ( 'NONE', #220, 2.000000000000001332 ) ;
#164 = APPROVAL_ROLE ( '' ) ;
#165 = EDGE_CURVE ( 'NONE', #40, #40, #163, .T. ) ;
#166 = CC_DESIGN_PERSON_AND_ORGANIZATION_ASSIGNMENT ( #193, #47, ( #177 ) ) ;
#167 = FACE_OUTER_BOUND ( 'NONE', #151, .T. ) ;
#168 = APPLICATION_CONTEXT ( 'configuration controlled 3d designs of mechanical parts and assemblies' ) ;
#169 = CARTESIAN_POINT ( 'NONE',  ( 5.888741295776756228E-14, -2.152893009727162214E-15, 16.86602540378443393 ) ) ;
#170 = ADVANCED_FACE ( 'NONE', ( #7 ), #211, .F. ) ;
#171 = CARTESIAN_POINT ( 'NONE',  ( -6.413839710158237013E-31, 0.0000000000000000000, -1.836996703606440502E-16 ) ) ;
#172 = CARTESIAN_POINT ( 'NONE',  ( 1.735266225405037467E-13, -6.086494591762345225E-15, 49.70000000000000284 ) ) ;
#173 = DIRECTION ( 'NONE',  ( 3.491481338843133355E-15, -1.276467311168695266E-16, 1.000000000000000000 ) ) ;
#174 = CARTESIAN_POINT ( 'NONE',  ( 5.237222008264700033E-14, -1.914700966753042948E-15, 15.00000000000000000 ) ) ;
#175 = CIRCLE ( 'NONE', #112, 1.499999999999998668 ) ;
#176 = PERSON_AND_ORGANIZATION_ROLE ( 'design_owner' ) ;
#177 = PRODUCT_DEFINITION ( 'UNKNOWN', '', #215, #30 ) ;
#178 = DIRECTION ( 'NONE',  ( -3.491481338843133355E-15, 1.224646799147353207E-16, -1.000000000000000000 ) ) ;
#179 = PERSON_AND_ORGANIZATION_ROLE ( 'creator' ) ;
#180 = EDGE_LOOP ( 'NONE', ( #31 ) ) ;
#181 = CALENDAR_DATE ( 2021, 8, 12 ) ;
#182 = AXIS2_PLACEMENT_3D ( 'NONE', #22, #60, #124 ) ;
#183 = ADVANCED_FACE ( 'NONE', ( #8, #192 ), #73, .T. ) ;
#184 = DIRECTION ( 'NONE',  ( -4.275831445896958607E-31, -1.000000000000000000, -1.224646799147353207E-16 ) ) ;
#185 = CARTESIAN_POINT ( 'NONE',  ( 1.745740669421566678E-13, -6.123233995736766085E-15, 50.00000000000000000 ) ) ;
#186 = AXIS2_PLACEMENT_3D ( 'NONE', #169, #208, #18 ) ;
#187 = FACE_OUTER_BOUND ( 'NONE', #150, .T. ) ;
#188 = FACE_OUTER_BOUND ( 'NONE', #85, .T. ) ;
#189 =( NAMED_UNIT ( * ) PLANE_ANGLE_UNIT ( ) SI_UNIT ( $, .RADIAN. ) );
#190 = DIRECTION ( 'NONE',  ( -4.456761796588771413E-31, -1.000000000000000000, -1.276467311168695019E-16 ) ) ;
#191 = SECURITY_CLASSIFICATION ( '', '', #67 ) ;
#192 = FACE_OUTER_BOUND ( 'NONE', #49, .T. ) ;
#193 = PERSON_AND_ORGANIZATION ( #201, #111 ) ;
#194 = PERSON_AND_ORGANIZATION ( #201, #111 ) ;
#195 = EDGE_CURVE ( 'NONE', #154, #154, #175, .T. ) ;
#196 = PERSON_AND_ORGANIZATION ( #201, #111 ) ;
#197 = CC_DESIGN_APPROVAL ( #10, ( #177 ) ) ;
#198 = EDGE_LOOP ( 'NONE', ( #50 ) ) ;
#199 = APPROVAL_DATE_TIME ( #219, #138 ) ;
#200 = DATE_AND_TIME ( #142, #12 ) ;
#201 = PERSON ( 'UNSPECIFIED', 'UNSPECIFIED', 'UNSPECIFIED', ('UNSPECIFIED'), ('UNSPECIFIED'), ('UNSPECIFIED') ) ;
#202 = AXIS2_PLACEMENT_3D ( 'NONE', #21, #37, #92 ) ;
#203 = DIRECTION ( 'NONE',  ( 4.275831445896958607E-31, 1.000000000000000000, 1.224646799147353207E-16 ) ) ;
#204 = PRODUCT ( '372589', '372589', '', ( #91 ) ) ;
#205 = EDGE_LOOP ( 'NONE', ( #3 ) ) ;
#206 = EDGE_LOOP ( 'NONE', ( #152 ) ) ;
#207 = AXIS2_PLACEMENT_3D ( 'NONE', #66, #106, #134 ) ;
#208 = DIRECTION ( 'NONE',  ( -3.491481338843133355E-15, 1.276467311168695266E-16, -1.000000000000000000 ) ) ;
#209 = VERTEX_POINT ( 'NONE', #56 ) ;
#210 = CONICAL_SURFACE ( 'NONE', #41, 6.500000000000000000, 0.2617993877991501850 ) ;
#211 = PLANE ( 'NONE',  #202 ) ;
#212 = EDGE_CURVE ( 'NONE', #139, #139, #116, .T. ) ;
#213 = CARTESIAN_POINT ( 'NONE',  ( -3.368048475777683653E-30, -1.499999999999998668, -9.646474229456005827E-16 ) ) ;
#214 = CARTESIAN_POINT ( 'NONE',  ( -2.699534206289368904E-30, 7.524489584330193151E-32, -7.731773262702964654E-16 ) ) ;
#215 = PRODUCT_DEFINITION_FORMATION_WITH_SPECIFIED_SOURCE ( 'ANY', '', #204, .NOT_KNOWN. ) ;
#216 = COORDINATED_UNIVERSAL_TIME_OFFSET ( 1, 0, .AHEAD. ) ;
#217 = APPROVAL_STATUS ( 'not_yet_approved' ) ;
#218 = AXIS2_PLACEMENT_3D ( 'NONE', #72, #119, #203 ) ;
#219 = DATE_AND_TIME ( #160, #102 ) ;
#220 = AXIS2_PLACEMENT_3D ( 'NONE', #172, #20, #117 ) ;
#221 = EDGE_LOOP ( 'NONE', ( #137 ) ) ;
#222 = EDGE_CURVE ( 'NONE', #209, #209, #83, .T. ) ;
#223 = PRODUCT_DEFINITION_SHAPE ( 'NONE', 'NONE',  #177 ) ;
ENDSEC;
END-ISO-10303-21;
