ISO-10303-21;
HEADER;
FILE_DESCRIPTION (( 'STEP AP203' ),
    '1' );
FILE_NAME ('372588.step',
    '2021-12-08T08:40:16',
    ( '' ),
    ( '' ),
    'SwSTEP 2.0',
    'SolidWorks 2019',
    '' );
FILE_SCHEMA (( 'CONFIG_CONTROL_DESIGN' ));
ENDSEC;

DATA;
#1 = COORDINATED_UNIVERSAL_TIME_OFFSET ( 1, 0, .AHEAD. ) ;
#2 = ADVANCED_FACE ( 'NONE', ( #57, #216 ), #162, .T. ) ;
#3 = PERSON_AND_ORGANIZATION ( #154, #33 ) ;
#4 = CALENDAR_DATE ( 2021, 8, 12 ) ;
#5 = CARTESIAN_POINT ( 'NONE',  ( 3.491481338843133355E-14, -1.276467311168695364E-15, 10.00000000000000000 ) ) ;
#6 = CARTESIAN_POINT ( 'NONE',  ( 1.396592535537253342E-13, -4.898587196589413026E-15, 40.00000000000000000 ) ) ;
#7 = MANIFOLD_SOLID_BREP ( 'Corps-Déplacer/Copier1[2]', #184 ) ;
#8 = ORIENTED_EDGE ( 'NONE', *, *, #15, .T. ) ;
#9 = MANIFOLD_SOLID_BREP ( 'Corps-Déplacer/Copier1[1]', #17 ) ;
#10 = CC_DESIGN_APPROVAL ( #164, ( #114 ) ) ;
#11 = EDGE_LOOP ( 'NONE', ( #25 ) ) ;
#12 = CARTESIAN_POINT ( 'NONE',  ( 1.396592535537253342E-13, -4.898587196589413026E-15, 40.00000000000000000 ) ) ;
#13 = DIRECTION ( 'NONE',  ( -3.491481338843133355E-15, 1.224646799147353207E-16, -1.000000000000000000 ) ) ;
#14 = AXIS2_PLACEMENT_3D ( 'NONE', #219, #220, #47 ) ;
#15 = EDGE_CURVE ( 'NONE', #81, #81, #213, .T. ) ;
#16 = APPLICATION_PROTOCOL_DEFINITION ( 'international standard', 'config_control_design', 1994, #105 ) ;
#17 = CLOSED_SHELL ( 'NONE', ( #203, #103, #156, #124, #99 ) ) ;
#18 = AXIS2_PLACEMENT_3D ( 'NONE', #165, #72, #80 ) ;
#19 = DESIGN_CONTEXT ( 'detailed design', #48, 'design' ) ;
#20 = COORDINATED_UNIVERSAL_TIME_OFFSET ( 1, 0, .AHEAD. ) ;
#21 = ORIENTED_EDGE ( 'NONE', *, *, #200, .T. ) ;
#22 = APPROVAL_DATE_TIME ( #158, #136 ) ;
#23 = ORIENTED_EDGE ( 'NONE', *, *, #208, .F. ) ;
#24 = CIRCLE ( 'NONE', #181, 1.999999999999996225 ) ;
#25 = ORIENTED_EDGE ( 'NONE', *, *, #208, .T. ) ;
#26 = EDGE_LOOP ( 'NONE', ( #96 ) ) ;
#27 = EDGE_LOOP ( 'NONE', ( #8 ) ) ;
#28 = AXIS2_PLACEMENT_3D ( 'NONE', #34, #119, #151 ) ;
#29 = DIRECTION ( 'NONE',  ( 3.491481338843133355E-15, -1.276467311168695266E-16, 1.000000000000000000 ) ) ;
#30 = CC_DESIGN_DATE_AND_TIME_ASSIGNMENT ( #86, #69, ( #108 ) ) ;
#31 = VERTEX_POINT ( 'NONE', #153 ) ;
#32 = FACE_OUTER_BOUND ( 'NONE', #77, .T. ) ;
#33 = ORGANIZATION ( 'UNSPECIFIED', 'UNSPECIFIED', '' ) ;
#34 = CARTESIAN_POINT ( 'NONE',  ( -2.699534206289368904E-30, 7.524489584330193151E-32, -7.731773262702964654E-16 ) ) ;
#35 = PERSON_AND_ORGANIZATION ( #154, #33 ) ;
#36 = PERSON_AND_ORGANIZATION ( #154, #33 ) ;
#37 = APPROVAL_DATE_TIME ( #73, #164 ) ;
#38 = CALENDAR_DATE ( 2021, 8, 12 ) ;
#39 = DIRECTION ( 'NONE',  ( -4.456761796588770537E-31, -1.000000000000000000, -1.276467311168695266E-16 ) ) ;
#40 = AXIS2_PLACEMENT_3D ( 'NONE', #5, #125, #95 ) ;
#41 = EDGE_LOOP ( 'NONE', ( #142 ) ) ;
#42 = DIRECTION ( 'NONE',  ( 3.491481338843133355E-15, -1.224646799147353207E-16, 1.000000000000000000 ) ) ;
#43 = DIRECTION ( 'NONE',  ( -3.491481338843133355E-15, 1.224646799147353207E-16, -1.000000000000000000 ) ) ;
#44 = PRODUCT_DEFINITION_SHAPE ( 'NONE', 'NONE',  #108 ) ;
#45 = CARTESIAN_POINT ( 'NONE',  ( 4.143000626355186395E-14, -1.999999999999997335, 11.86602540378442150 ) ) ;
#46 = DIRECTION ( 'NONE',  ( 0.0000000000000000000, -1.000000000000000000, 0.0000000000000000000 ) ) ;
#47 = DIRECTION ( 'NONE',  ( -4.275831445896958607E-31, -1.000000000000000000, -1.224646799147353207E-16 ) ) ;
#48 = APPLICATION_CONTEXT ( 'configuration controlled 3d designs of mechanical parts and assemblies' ) ;
#49 = DIRECTION ( 'NONE',  ( -3.491481338843133355E-15, 1.224646799147353207E-16, -1.000000000000000000 ) ) ;
#50 = CONICAL_SURFACE ( 'NONE', #51, 1.699999999999997735, 0.7853981633974450594 ) ;
#51 = AXIS2_PLACEMENT_3D ( 'NONE', #6, #140, #191 ) ;
#52 = APPROVAL_ROLE ( '' ) ;
#53 = AXIS2_PLACEMENT_3D ( 'NONE', #201, #43, #62 ) ;
#54 = APPROVAL_STATUS ( 'not_yet_approved' ) ;
#55 = SHAPE_DEFINITION_REPRESENTATION ( #44, #70 ) ;
#56 = CC_DESIGN_PERSON_AND_ORGANIZATION_ASSIGNMENT ( #172, #160, ( #202 ) ) ;
#57 = FACE_OUTER_BOUND ( 'NONE', #11, .T. ) ;
#58 = ORIENTED_EDGE ( 'NONE', *, *, #15, .F. ) ;
#59 = LOCAL_TIME ( 9, 40, 16.00000000000000000, #20 ) ;
#60 = FACE_OUTER_BOUND ( 'NONE', #145, .T. ) ;
#61 = EDGE_LOOP ( 'NONE', ( #21 ) ) ;
#62 = DIRECTION ( 'NONE',  ( 0.0000000000000000000, 1.000000000000000000, 0.0000000000000000000 ) ) ;
#63 = VERTEX_POINT ( 'NONE', #217 ) ;
#64 = DIRECTION ( 'NONE',  ( 0.0000000000000000000, 0.0000000000000000000, 1.000000000000000000 ) ) ;
#65 = CYLINDRICAL_SURFACE ( 'NONE', #92, 1.999999999999996225 ) ;
#66 = LOCAL_TIME ( 9, 40, 16.00000000000000000, #1 ) ;
#67 = DATE_AND_TIME ( #4, #68 ) ;
#68 = LOCAL_TIME ( 9, 40, 16.00000000000000000, #192 ) ;
#69 = DATE_TIME_ROLE ( 'creation_date' ) ;
#70 = ADVANCED_BREP_SHAPE_REPRESENTATION ( '372588', ( #9, #7, #134 ), #173 ) ;
#71 = APPROVAL_DATE_TIME ( #210, #117 ) ;
#72 = DIRECTION ( 'NONE',  ( 3.491481338843133355E-15, -1.224646799147353207E-16, 1.000000000000000000 ) ) ;
#73 = DATE_AND_TIME ( #110, #171 ) ;
#74 = APPROVAL_STATUS ( 'not_yet_approved' ) ;
#75 = FACE_BOUND ( 'NONE', #26, .T. ) ;
#76 = UNCERTAINTY_MEASURE_WITH_UNIT (LENGTH_MEASURE( 1.000000000000000082E-05 ), #132, 'distance_accuracy_value', 'NONE');
#77 = EDGE_LOOP ( 'NONE', ( #174 ) ) ;
#78 = CC_DESIGN_DATE_AND_TIME_ASSIGNMENT ( #67, #138, ( #114 ) ) ;
#79 = AXIS2_PLACEMENT_3D ( 'NONE', #196, #42, #112 ) ;
#80 = DIRECTION ( 'NONE',  ( -4.275831445896958607E-31, -1.000000000000000000, -1.224646799147353207E-16 ) ) ;
#81 = VERTEX_POINT ( 'NONE', #82 ) ;
#82 = CARTESIAN_POINT ( 'NONE',  ( 3.491481338843133355E-14, -1.500000000000000444, 10.00000000000000000 ) ) ;
#83 = APPROVAL_PERSON_ORGANIZATION ( #206, #164, #163 ) ;
#84 = CARTESIAN_POINT ( 'NONE',  ( 3.491481338843133355E-14, -1.276467311168695364E-15, 10.00000000000000000 ) ) ;
#85 = CIRCLE ( 'NONE', #28, 1.499999999999998668 ) ;
#86 = DATE_AND_TIME ( #123, #59 ) ;
#87 = LOCAL_TIME ( 9, 40, 16.00000000000000000, #126 ) ;
#88 = CC_DESIGN_PERSON_AND_ORGANIZATION_ASSIGNMENT ( #3, #190, ( #108 ) ) ;
#89 = PERSON_AND_ORGANIZATION_ROLE ( 'design_supplier' ) ;
#90 = PLANE ( 'NONE',  #18 ) ;
#91 = ORIENTED_EDGE ( 'NONE', *, *, #188, .F. ) ;
#92 = AXIS2_PLACEMENT_3D ( 'NONE', #186, #49, #168 ) ;
#93 = PERSON_AND_ORGANIZATION ( #154, #33 ) ;
#94 = CC_DESIGN_PERSON_AND_ORGANIZATION_ASSIGNMENT ( #35, #104, ( #114 ) ) ;
#95 = DIRECTION ( 'NONE',  ( 0.0000000000000000000, -1.000000000000000000, 0.0000000000000000000 ) ) ;
#96 = ORIENTED_EDGE ( 'NONE', *, *, #188, .T. ) ;
#97 = AXIS2_PLACEMENT_3D ( 'NONE', #180, #135, #218 ) ;
#98 = DIRECTION ( 'NONE',  ( -3.491481338843133355E-15, 1.276467311168695266E-16, -1.000000000000000000 ) ) ;
#99 = ADVANCED_FACE ( 'NONE', ( #167 ), #90, .F. ) ;
#100 =( NAMED_UNIT ( * ) PLANE_ANGLE_UNIT ( ) SI_UNIT ( $, .RADIAN. ) );
#101 = VERTEX_POINT ( 'NONE', #45 ) ;
#102 = FACE_OUTER_BOUND ( 'NONE', #27, .T. ) ;
#103 = ADVANCED_FACE ( 'NONE', ( #197, #215 ), #50, .T. ) ;
#104 = PERSON_AND_ORGANIZATION_ROLE ( 'classification_officer' ) ;
#105 = APPLICATION_CONTEXT ( 'configuration controlled 3d designs of mechanical parts and assemblies' ) ;
#106 = COORDINATED_UNIVERSAL_TIME_OFFSET ( 1, 0, .AHEAD. ) ;
#107 = CC_DESIGN_APPROVAL ( #117, ( #202 ) ) ;
#108 = PRODUCT_DEFINITION ( 'UNKNOWN', '', #202, #19 ) ;
#109 = CARTESIAN_POINT ( 'NONE',  ( 1.000667421396370667E-13, -3.658387740909890592E-15, 28.66025403784433934 ) ) ;
#110 = CALENDAR_DATE ( 2021, 8, 12 ) ;
#111 = EDGE_LOOP ( 'NONE', ( #58 ) ) ;
#112 = DIRECTION ( 'NONE',  ( -4.275831445896958607E-31, -1.000000000000000000, -1.224646799147353207E-16 ) ) ;
#113 = CARTESIAN_POINT ( 'NONE',  ( 4.143000626355186395E-14, -1.514659354142813250E-15, 11.86602540378442150 ) ) ;
#114 = SECURITY_CLASSIFICATION ( '', '', #157 ) ;
#115 = PLANE ( 'NONE',  #14 ) ;
#116 = AXIS2_PLACEMENT_3D ( 'NONE', #159, #144, #39 ) ;
#117 = APPROVAL ( #54, 'UNSPECIFIED' ) ;
#118 = AXIS2_PLACEMENT_3D ( 'NONE', #12, #13, #198 ) ;
#119 = DIRECTION ( 'NONE',  ( 3.491481338843133355E-15, -1.276467311168695266E-16, 1.000000000000000000 ) ) ;
#120 = APPLICATION_PROTOCOL_DEFINITION ( 'international standard', 'config_control_design', 1994, #48 ) ;
#121 = AXIS2_PLACEMENT_3D ( 'NONE', #109, #212, #166 ) ;
#122 = PRODUCT_RELATED_PRODUCT_CATEGORY ( 'detail', '', ( #146 ) ) ;
#123 = CALENDAR_DATE ( 2021, 8, 12 ) ;
#124 = ADVANCED_FACE ( 'NONE', ( #75, #143 ), #222, .T. ) ;
#125 = DIRECTION ( 'NONE',  ( 3.491481338843133355E-15, -1.276467311168695266E-16, 1.000000000000000000 ) ) ;
#126 = COORDINATED_UNIVERSAL_TIME_OFFSET ( 1, 0, .AHEAD. ) ;
#127 = ORIENTED_EDGE ( 'NONE', *, *, #178, .F. ) ;
#128 = ADVANCED_FACE ( 'NONE', ( #60 ), #129, .F. ) ;
#129 = PLANE ( 'NONE',  #79 ) ;
#130 =( NAMED_UNIT ( * ) SI_UNIT ( $, .STERADIAN. ) SOLID_ANGLE_UNIT ( ) );
#131 = DIRECTION ( 'NONE',  ( 0.0000000000000000000, -1.000000000000000000, 0.0000000000000000000 ) ) ;
#132 =( LENGTH_UNIT ( ) NAMED_UNIT ( * ) SI_UNIT ( .MILLI., .METRE. ) );
#133 = CARTESIAN_POINT ( 'NONE',  ( 0.0000000000000000000, 0.0000000000000000000, 0.0000000000000000000 ) ) ;
#134 = AXIS2_PLACEMENT_3D ( 'NONE', #133, #64, #152 ) ;
#135 = DIRECTION ( 'NONE',  ( -3.491481338843133355E-15, 1.224646799147353207E-16, -1.000000000000000000 ) ) ;
#136 = APPROVAL ( #141, 'UNSPECIFIED' ) ;
#137 = CC_DESIGN_APPROVAL ( #136, ( #108 ) ) ;
#138 = DATE_TIME_ROLE ( 'classification_date' ) ;
#139 = PERSON_AND_ORGANIZATION ( #154, #33 ) ;
#140 = DIRECTION ( 'NONE',  ( -3.491481338843133355E-15, 1.224646799147353207E-16, -1.000000000000000000 ) ) ;
#141 = APPROVAL_STATUS ( 'not_yet_approved' ) ;
#142 = ORIENTED_EDGE ( 'NONE', *, *, #205, .F. ) ;
#143 = FACE_OUTER_BOUND ( 'NONE', #61, .T. ) ;
#144 = DIRECTION ( 'NONE',  ( 3.491481338843133355E-15, -1.276467311168695266E-16, 1.000000000000000000 ) ) ;
#145 = EDGE_LOOP ( 'NONE', ( #23 ) ) ;
#146 = PRODUCT ( '372588', '372588', '', ( #183 ) ) ;
#147 = CC_DESIGN_PERSON_AND_ORGANIZATION_ASSIGNMENT ( #223, #187, ( #146 ) ) ;
#148 = CARTESIAN_POINT ( 'NONE',  ( 1.386118091520723879E-13, 1.999999999999992673, 39.69999999999999574 ) ) ;
#149 = PLANE ( 'NONE',  #97 ) ;
#150 = CIRCLE ( 'NONE', #53, 1.999999999999997335 ) ;
#151 = DIRECTION ( 'NONE',  ( -4.456761796588771413E-31, -1.000000000000000000, -1.276467311168695019E-16 ) ) ;
#152 = DIRECTION ( 'NONE',  ( 1.000000000000000000, 0.0000000000000000000, 0.0000000000000000000 ) ) ;
#153 = CARTESIAN_POINT ( 'NONE',  ( -3.368048475777683653E-30, -1.499999999999998668, -9.646474229456005827E-16 ) ) ;
#154 = PERSON ( 'UNSPECIFIED', 'UNSPECIFIED', 'UNSPECIFIED', ('UNSPECIFIED'), ('UNSPECIFIED'), ('UNSPECIFIED') ) ;
#155 = APPROVAL_PERSON_ORGANIZATION ( #93, #136, #204 ) ;
#156 = ADVANCED_FACE ( 'NONE', ( #179 ), #149, .F. ) ;
#157 = SECURITY_CLASSIFICATION_LEVEL ( 'unclassified' ) ;
#158 = DATE_AND_TIME ( #38, #66 ) ;
#159 = CARTESIAN_POINT ( 'NONE',  ( -6.413839710158237013E-31, 0.0000000000000000000, -1.836996703606440502E-16 ) ) ;
#160 = PERSON_AND_ORGANIZATION_ROLE ( 'creator' ) ;
#161 = AXIS2_PLACEMENT_3D ( 'NONE', #84, #29, #131 ) ;
#162 = CYLINDRICAL_SURFACE ( 'NONE', #116, 1.499999999999998890 ) ;
#163 = APPROVAL_ROLE ( '' ) ;
#164 = APPROVAL ( #74, 'UNSPECIFIED' ) ;
#165 = CARTESIAN_POINT ( 'NONE',  ( 3.491481338843133355E-14, 1.499759782661852134E-32, 10.00000000000000000 ) ) ;
#166 = DIRECTION ( 'NONE',  ( 0.0000000000000000000, -1.000000000000000000, 0.0000000000000000000 ) ) ;
#167 = FACE_OUTER_BOUND ( 'NONE', #177, .T. ) ;
#168 = DIRECTION ( 'NONE',  ( 4.275831445896958607E-31, 1.000000000000000000, 1.224646799147352961E-16 ) ) ;
#169 = FACE_OUTER_BOUND ( 'NONE', #175, .T. ) ;
#170 = CARTESIAN_POINT ( 'NONE',  ( 1.396592535537253342E-13, 1.699999999999992850, 40.00000000000000000 ) ) ;
#171 = LOCAL_TIME ( 9, 40, 16.00000000000000000, #106 ) ;
#172 = PERSON_AND_ORGANIZATION ( #154, #33 ) ;
#173 =( GEOMETRIC_REPRESENTATION_CONTEXT ( 3 ) GLOBAL_UNCERTAINTY_ASSIGNED_CONTEXT ( ( #76 ) ) GLOBAL_UNIT_ASSIGNED_CONTEXT ( ( #132, #100, #130 ) ) REPRESENTATION_CONTEXT ( 'NONE', 'WORKASPACE' ) );
#174 = ORIENTED_EDGE ( 'NONE', *, *, #200, .F. ) ;
#175 = EDGE_LOOP ( 'NONE', ( #194 ) ) ;
#176 = ORIENTED_EDGE ( 'NONE', *, *, #205, .T. ) ;
#177 = EDGE_LOOP ( 'NONE', ( #91 ) ) ;
#178 = EDGE_CURVE ( 'NONE', #182, #182, #150, .T. ) ;
#179 = FACE_OUTER_BOUND ( 'NONE', #41, .T. ) ;
#180 = CARTESIAN_POINT ( 'NONE',  ( 1.396592535537253342E-13, 1.274795815262569661E-32, 40.00000000000000000 ) ) ;
#181 = AXIS2_PLACEMENT_3D ( 'NONE', #113, #98, #46 ) ;
#182 = VERTEX_POINT ( 'NONE', #148 ) ;
#183 = MECHANICAL_CONTEXT ( 'NONE', #105, 'mechanical' ) ;
#184 = CLOSED_SHELL ( 'NONE', ( #221, #2, #128 ) ) ;
#185 = CC_DESIGN_SECURITY_CLASSIFICATION ( #114, ( #202 ) ) ;
#186 = CARTESIAN_POINT ( 'NONE',  ( 0.0000000000000000000, 0.0000000000000000000, 0.0000000000000000000 ) ) ;
#187 = PERSON_AND_ORGANIZATION_ROLE ( 'design_owner' ) ;
#188 = EDGE_CURVE ( 'NONE', #63, #63, #209, .T. ) ;
#189 = APPROVAL_PERSON_ORGANIZATION ( #139, #117, #52 ) ;
#190 = PERSON_AND_ORGANIZATION_ROLE ( 'creator' ) ;
#191 = DIRECTION ( 'NONE',  ( 0.0000000000000000000, 1.000000000000000000, 0.0000000000000000000 ) ) ;
#192 = COORDINATED_UNIVERSAL_TIME_OFFSET ( 1, 0, .AHEAD. ) ;
#193 = EDGE_LOOP ( 'NONE', ( #176 ) ) ;
#194 = ORIENTED_EDGE ( 'NONE', *, *, #178, .T. ) ;
#195 = CC_DESIGN_PERSON_AND_ORGANIZATION_ASSIGNMENT ( #36, #89, ( #202 ) ) ;
#196 = CARTESIAN_POINT ( 'NONE',  ( -3.206929550635969444E-31, 1.124839467301488994E-32, -9.185011287210697882E-17 ) ) ;
#197 = FACE_OUTER_BOUND ( 'NONE', #211, .T. ) ;
#198 = DIRECTION ( 'NONE',  ( 0.0000000000000000000, 1.000000000000000000, 0.0000000000000000000 ) ) ;
#199 = VERTEX_POINT ( 'NONE', #170 ) ;
#200 = EDGE_CURVE ( 'NONE', #101, #101, #24, .T. ) ;
#201 = CARTESIAN_POINT ( 'NONE',  ( 1.386118091520723879E-13, -4.861847792614992166E-15, 39.69999999999999574 ) ) ;
#202 = PRODUCT_DEFINITION_FORMATION_WITH_SPECIFIED_SOURCE ( 'ANY', '', #146, .NOT_KNOWN. ) ;
#203 = ADVANCED_FACE ( 'NONE', ( #169, #32 ), #65, .T. ) ;
#204 = APPROVAL_ROLE ( '' ) ;
#205 = EDGE_CURVE ( 'NONE', #199, #199, #214, .T. ) ;
#206 = PERSON_AND_ORGANIZATION ( #154, #33 ) ;
#207 = CALENDAR_DATE ( 2021, 8, 12 ) ;
#208 = EDGE_CURVE ( 'NONE', #31, #31, #85, .T. ) ;
#209 = CIRCLE ( 'NONE', #161, 1.499999999999999112 ) ;
#210 = DATE_AND_TIME ( #207, #87 ) ;
#211 = EDGE_LOOP ( 'NONE', ( #127 ) ) ;
#212 = DIRECTION ( 'NONE',  ( 3.491481338843133355E-15, -1.276467311168695266E-16, 1.000000000000000000 ) ) ;
#213 = CIRCLE ( 'NONE', #40, 1.499999999999999112 ) ;
#214 = CIRCLE ( 'NONE', #118, 1.699999999999997735 ) ;
#215 = FACE_BOUND ( 'NONE', #193, .T. ) ;
#216 = FACE_OUTER_BOUND ( 'NONE', #111, .T. ) ;
#217 = CARTESIAN_POINT ( 'NONE',  ( 3.491481338843133355E-14, -1.500000000000000444, 10.00000000000000000 ) ) ;
#218 = DIRECTION ( 'NONE',  ( 4.275831445896958607E-31, 1.000000000000000000, 1.224646799147353207E-16 ) ) ;
#219 = CARTESIAN_POINT ( 'NONE',  ( 3.491481338843133355E-14, 1.499759782661852134E-32, 10.00000000000000000 ) ) ;
#220 = DIRECTION ( 'NONE',  ( 3.491481338843133355E-15, -1.224646799147353207E-16, 1.000000000000000000 ) ) ;
#221 = ADVANCED_FACE ( 'NONE', ( #102 ), #115, .T. ) ;
#222 = CONICAL_SURFACE ( 'NONE', #121, 6.500000000000000000, 0.2617993877991501295 ) ;
#223 = PERSON_AND_ORGANIZATION ( #154, #33 ) ;
ENDSEC;
END-ISO-10303-21;
