ISO-10303-21;
HEADER;
FILE_DESCRIPTION (( 'STEP AP203' ),
    '1' );
FILE_NAME ('372587.step',
    '2021-12-08T08:40:15',
    ( '' ),
    ( '' ),
    'SwSTEP 2.0',
    'SolidWorks 2019',
    '' );
FILE_SCHEMA (( 'CONFIG_CONTROL_DESIGN' ));
ENDSEC;

DATA;
#1 = CARTESIAN_POINT ( 'NONE',  ( -6.413839710158237013E-31, 0.0000000000000000000, -1.836996703606440502E-16 ) ) ;
#2 = CC_DESIGN_APPROVAL ( #164, ( #166 ) ) ;
#3 = APPROVAL_ROLE ( '' ) ;
#4 = AXIS2_PLACEMENT_3D ( 'NONE', #81, #145, #221 ) ;
#5 = PERSON_AND_ORGANIZATION_ROLE ( 'creator' ) ;
#6 = APPROVAL_ROLE ( '' ) ;
#7 = AXIS2_PLACEMENT_3D ( 'NONE', #212, #141, #54 ) ;
#8 = APPROVAL_DATE_TIME ( #108, #21 ) ;
#9 = DIRECTION ( 'NONE',  ( -3.491481338843133355E-15, 1.224646799147353207E-16, -1.000000000000000000 ) ) ;
#10 = PLANE ( 'NONE',  #4 ) ;
#11 = EDGE_CURVE ( 'NONE', #13, #13, #38, .T. ) ;
#12 = CLOSED_SHELL ( 'NONE', ( #61, #139, #51, #87, #71 ) ) ;
#13 = VERTEX_POINT ( 'NONE', #52 ) ;
#14 = DESIGN_CONTEXT ( 'detailed design', #28, 'design' ) ;
#15 = FACE_OUTER_BOUND ( 'NONE', #79, .T. ) ;
#16 = CARTESIAN_POINT ( 'NONE',  ( 2.793185071074506684E-14, -1.021173848934956212E-15, 8.000000000000000000 ) ) ;
#17 = AXIS2_PLACEMENT_3D ( 'NONE', #31, #121, #133 ) ;
#18 = CARTESIAN_POINT ( 'NONE',  ( 2.084414359289350550E-13, -7.311141390909697496E-15, 59.69999999999999574 ) ) ;
#19 = COORDINATED_UNIVERSAL_TIME_OFFSET ( 1, 0, .AHEAD. ) ;
#20 = PERSON_AND_ORGANIZATION ( #30, #60 ) ;
#21 = APPROVAL ( #157, 'UNSPECIFIED' ) ;
#22 = AXIS2_PLACEMENT_3D ( 'NONE', #134, #192, #50 ) ;
#23 = PERSON_AND_ORGANIZATION_ROLE ( 'creator' ) ;
#24 = CALENDAR_DATE ( 2021, 8, 12 ) ;
#25 = AXIS2_PLACEMENT_3D ( 'NONE', #1, #103, #91 ) ;
#26 = ORIENTED_EDGE ( 'NONE', *, *, #128, .F. ) ;
#27 = EDGE_LOOP ( 'NONE', ( #126 ) ) ;
#28 = APPLICATION_CONTEXT ( 'configuration controlled 3d designs of mechanical parts and assemblies' ) ;
#29 = EDGE_LOOP ( 'NONE', ( #63 ) ) ;
#30 = PERSON ( 'UNSPECIFIED', 'UNSPECIFIED', 'UNSPECIFIED', ('UNSPECIFIED'), ('UNSPECIFIED'), ('UNSPECIFIED') ) ;
#31 = CARTESIAN_POINT ( 'NONE',  ( 2.793185071074506684E-14, -1.021173848934956212E-15, 8.000000000000000000 ) ) ;
#32 = CARTESIAN_POINT ( 'NONE',  ( -3.368048475777683653E-30, -1.499999999999998668, -9.646474229456005827E-16 ) ) ;
#33 =( NAMED_UNIT ( * ) SI_UNIT ( $, .STERADIAN. ) SOLID_ANGLE_UNIT ( ) );
#34 = PRODUCT_DEFINITION ( 'UNKNOWN', '', #39, #14 ) ;
#35 = FACE_BOUND ( 'NONE', #27, .T. ) ;
#36 = AXIS2_PLACEMENT_3D ( 'NONE', #37, #223, #168 ) ;
#37 = CARTESIAN_POINT ( 'NONE',  ( -2.699534206289368904E-30, 7.524489584330193151E-32, -7.731773262702964654E-16 ) ) ;
#38 = CIRCLE ( 'NONE', #208, 1.999999999999998224 ) ;
#39 = PRODUCT_DEFINITION_FORMATION_WITH_SPECIFIED_SOURCE ( 'ANY', '', #113, .NOT_KNOWN. ) ;
#40 = PERSON_AND_ORGANIZATION ( #30, #60 ) ;
#41 = DATE_TIME_ROLE ( 'classification_date' ) ;
#42 = DIRECTION ( 'NONE',  ( -3.491481338843133355E-15, 1.276467311168695266E-16, -1.000000000000000000 ) ) ;
#43 = APPROVAL ( #214, 'UNSPECIFIED' ) ;
#44 = ORIENTED_EDGE ( 'NONE', *, *, #148, .F. ) ;
#45 = LOCAL_TIME ( 9, 40, 15.00000000000000000, #109 ) ;
#46 = ORIENTED_EDGE ( 'NONE', *, *, #11, .F. ) ;
#47 = DIRECTION ( 'NONE',  ( -3.491481338843133355E-15, 1.224646799147353207E-16, -1.000000000000000000 ) ) ;
#48 = DIRECTION ( 'NONE',  ( 3.491481338843133355E-15, -1.276467311168695266E-16, 1.000000000000000000 ) ) ;
#49 = AXIS2_PLACEMENT_3D ( 'NONE', #53, #154, #86 ) ;
#50 = DIRECTION ( 'NONE',  ( -4.275831445896958607E-31, -1.000000000000000000, -1.224646799147353207E-16 ) ) ;
#51 = ADVANCED_FACE ( 'NONE', ( #83 ), #112, .F. ) ;
#52 = CARTESIAN_POINT ( 'NONE',  ( 3.444704358586562248E-14, -1.999999999999999556, 9.866025403784430381 ) ) ;
#53 = CARTESIAN_POINT ( 'NONE',  ( 2.094888803305880013E-13, -7.347880794884118356E-15, 60.00000000000000000 ) ) ;
#54 = DIRECTION ( 'NONE',  ( 1.000000000000000000, 0.0000000000000000000, 0.0000000000000000000 ) ) ;
#55 = DATE_TIME_ROLE ( 'creation_date' ) ;
#56 = CIRCLE ( 'NONE', #36, 1.499999999999998668 ) ;
#57 = APPROVAL_DATE_TIME ( #92, #43 ) ;
#58 = APPROVAL_DATE_TIME ( #216, #164 ) ;
#59 = ORIENTED_EDGE ( 'NONE', *, *, #123, .T. ) ;
#60 = ORGANIZATION ( 'UNSPECIFIED', 'UNSPECIFIED', '' ) ;
#61 = ADVANCED_FACE ( 'NONE', ( #116, #98 ), #185, .T. ) ;
#62 = EDGE_LOOP ( 'NONE', ( #129 ) ) ;
#63 = ORIENTED_EDGE ( 'NONE', *, *, #123, .F. ) ;
#64 = CIRCLE ( 'NONE', #107, 1.499999999999997780 ) ;
#65 = DIRECTION ( 'NONE',  ( 0.0000000000000000000, 1.000000000000000000, 0.0000000000000000000 ) ) ;
#66 = PLANE ( 'NONE',  #22 ) ;
#67 = DIRECTION ( 'NONE',  ( 0.0000000000000000000, 1.000000000000000000, 0.0000000000000000000 ) ) ;
#68 = AXIS2_PLACEMENT_3D ( 'NONE', #147, #47, #182 ) ;
#69 = VERTEX_POINT ( 'NONE', #120 ) ;
#70 = CARTESIAN_POINT ( 'NONE',  ( 9.308377946195077470E-14, -3.403094278676150060E-15, 26.66025403784432868 ) ) ;
#71 = ADVANCED_FACE ( 'NONE', ( #165 ), #10, .F. ) ;
#72 = APPLICATION_PROTOCOL_DEFINITION ( 'international standard', 'config_control_design', 1994, #28 ) ;
#73 = MECHANICAL_CONTEXT ( 'NONE', #193, 'mechanical' ) ;
#74 = PERSON_AND_ORGANIZATION ( #30, #60 ) ;
#75 = CIRCLE ( 'NONE', #156, 1.700000000000001510 ) ;
#76 = DATE_AND_TIME ( #196, #205 ) ;
#77 = UNCERTAINTY_MEASURE_WITH_UNIT (LENGTH_MEASURE( 1.000000000000000082E-05 ), #202, 'distance_accuracy_value', 'NONE');
#78 = DIRECTION ( 'NONE',  ( 4.275831445896957731E-31, 1.000000000000000000, 1.224646799147353207E-16 ) ) ;
#79 = EDGE_LOOP ( 'NONE', ( #184 ) ) ;
#80 = LOCAL_TIME ( 9, 40, 15.00000000000000000, #177 ) ;
#81 = CARTESIAN_POINT ( 'NONE',  ( 2.793185071074506684E-14, 1.499759782661852681E-32, 8.000000000000000000 ) ) ;
#82 = MANIFOLD_SOLID_BREP ( 'Corps-Déplacer/Copier1[1]', #12 ) ;
#83 = FACE_OUTER_BOUND ( 'NONE', #29, .T. ) ;
#84 = CONICAL_SURFACE ( 'NONE', #183, 6.499999999999998224, 0.2617993877991501850 ) ;
#85 = VERTEX_POINT ( 'NONE', #117 ) ;
#86 = DIRECTION ( 'NONE',  ( 0.0000000000000000000, 1.000000000000000000, 0.0000000000000000000 ) ) ;
#87 = ADVANCED_FACE ( 'NONE', ( #35, #89 ), #84, .T. ) ;
#88 = PLANE ( 'NONE',  #104 ) ;
#89 = FACE_OUTER_BOUND ( 'NONE', #130, .T. ) ;
#90 = APPROVAL_PERSON_ORGANIZATION ( #140, #43, #3 ) ;
#91 = DIRECTION ( 'NONE',  ( -4.456761796588771413E-31, -1.000000000000000000, -1.276467311168695266E-16 ) ) ;
#92 = DATE_AND_TIME ( #197, #138 ) ;
#93 = PERSON_AND_ORGANIZATION ( #30, #60 ) ;
#94 = ADVANCED_FACE ( 'NONE', ( #15 ), #88, .T. ) ;
#95 = DATE_AND_TIME ( #24, #80 ) ;
#96 = CC_DESIGN_PERSON_AND_ORGANIZATION_ASSIGNMENT ( #20, #5, ( #39 ) ) ;
#97 = CARTESIAN_POINT ( 'NONE',  ( 3.444704358586562248E-14, -1.259365891909075084E-15, 9.866025403784430381 ) ) ;
#98 = FACE_OUTER_BOUND ( 'NONE', #127, .T. ) ;
#99 = EDGE_LOOP ( 'NONE', ( #44 ) ) ;
#100 = CC_DESIGN_PERSON_AND_ORGANIZATION_ASSIGNMENT ( #175, #125, ( #166 ) ) ;
#101 = CARTESIAN_POINT ( 'NONE',  ( 0.0000000000000000000, 0.0000000000000000000, 0.0000000000000000000 ) ) ;
#102 = FACE_OUTER_BOUND ( 'NONE', #167, .T. ) ;
#103 = DIRECTION ( 'NONE',  ( 3.491481338843133355E-15, -1.276467311168695266E-16, 1.000000000000000000 ) ) ;
#104 = AXIS2_PLACEMENT_3D ( 'NONE', #155, #152, #135 ) ;
#105 = APPROVAL_ROLE ( '' ) ;
#106 = PERSON_AND_ORGANIZATION_ROLE ( 'design_owner' ) ;
#107 = AXIS2_PLACEMENT_3D ( 'NONE', #16, #207, #173 ) ;
#108 = DATE_AND_TIME ( #158, #220 ) ;
#109 = COORDINATED_UNIVERSAL_TIME_OFFSET ( 1, 0, .AHEAD. ) ;
#110 = ADVANCED_FACE ( 'NONE', ( #118, #222 ), #188, .T. ) ;
#111 = ORIENTED_EDGE ( 'NONE', *, *, #136, .F. ) ;
#112 = PLANE ( 'NONE',  #68 ) ;
#113 = PRODUCT ( '372587', '372587', '', ( #73 ) ) ;
#114 = CC_DESIGN_SECURITY_CLASSIFICATION ( #166, ( #39 ) ) ;
#115 = ORIENTED_EDGE ( 'NONE', *, *, #213, .F. ) ;
#116 = FACE_OUTER_BOUND ( 'NONE', #219, .T. ) ;
#117 = CARTESIAN_POINT ( 'NONE',  ( 2.094888803305880013E-13, 1.699999999999993960, 60.00000000000000000 ) ) ;
#118 = FACE_OUTER_BOUND ( 'NONE', #62, .T. ) ;
#119 = VERTEX_POINT ( 'NONE', #32 ) ;
#120 = CARTESIAN_POINT ( 'NONE',  ( 2.793185071074506684E-14, -1.499999999999998890, 8.000000000000000000 ) ) ;
#121 = DIRECTION ( 'NONE',  ( 3.491481338843133355E-15, -1.276467311168695266E-16, 1.000000000000000000 ) ) ;
#122 = SHAPE_DEFINITION_REPRESENTATION ( #162, #203 ) ;
#123 = EDGE_CURVE ( 'NONE', #85, #85, #75, .T. ) ;
#124 = SECURITY_CLASSIFICATION_LEVEL ( 'unclassified' ) ;
#125 = PERSON_AND_ORGANIZATION_ROLE ( 'classification_officer' ) ;
#126 = ORIENTED_EDGE ( 'NONE', *, *, #128, .T. ) ;
#127 = EDGE_LOOP ( 'NONE', ( #46 ) ) ;
#128 = EDGE_CURVE ( 'NONE', #170, #170, #64, .T. ) ;
#129 = ORIENTED_EDGE ( 'NONE', *, *, #213, .T. ) ;
#130 = EDGE_LOOP ( 'NONE', ( #200 ) ) ;
#131 = APPROVAL_PERSON_ORGANIZATION ( #40, #164, #6 ) ;
#132 = CC_DESIGN_DATE_AND_TIME_ASSIGNMENT ( #76, #41, ( #166 ) ) ;
#133 = DIRECTION ( 'NONE',  ( 0.0000000000000000000, -1.000000000000000000, 0.0000000000000000000 ) ) ;
#134 = CARTESIAN_POINT ( 'NONE',  ( -3.206893176760996436E-31, 1.124826709063585099E-32, -9.184907108292229064E-17 ) ) ;
#135 = DIRECTION ( 'NONE',  ( -4.275831445896958607E-31, -1.000000000000000000, -1.224646799147353207E-16 ) ) ;
#136 = EDGE_CURVE ( 'NONE', #151, #151, #201, .T. ) ;
#137 = DIRECTION ( 'NONE',  ( -3.491481338843133355E-15, 1.224646799147353207E-16, -1.000000000000000000 ) ) ;
#138 = LOCAL_TIME ( 9, 40, 15.00000000000000000, #143 ) ;
#139 = ADVANCED_FACE ( 'NONE', ( #190, #186 ), #210, .T. ) ;
#140 = PERSON_AND_ORGANIZATION ( #30, #60 ) ;
#141 = DIRECTION ( 'NONE',  ( 0.0000000000000000000, 0.0000000000000000000, 1.000000000000000000 ) ) ;
#142 =( GEOMETRIC_REPRESENTATION_CONTEXT ( 3 ) GLOBAL_UNCERTAINTY_ASSIGNED_CONTEXT ( ( #77 ) ) GLOBAL_UNIT_ASSIGNED_CONTEXT ( ( #202, #169, #33 ) ) REPRESENTATION_CONTEXT ( 'NONE', 'WORKASPACE' ) );
#143 = COORDINATED_UNIVERSAL_TIME_OFFSET ( 1, 0, .AHEAD. ) ;
#144 = DIRECTION ( 'NONE',  ( 0.0000000000000000000, -1.000000000000000000, 0.0000000000000000000 ) ) ;
#145 = DIRECTION ( 'NONE',  ( 3.491481338843133355E-15, -1.224646799147353207E-16, 1.000000000000000000 ) ) ;
#146 = CLOSED_SHELL ( 'NONE', ( #94, #110, #189 ) ) ;
#147 = CARTESIAN_POINT ( 'NONE',  ( 2.094888803305880013E-13, 1.274795815262569114E-32, 60.00000000000000000 ) ) ;
#148 = EDGE_CURVE ( 'NONE', #69, #69, #161, .T. ) ;
#149 = CARTESIAN_POINT ( 'NONE',  ( 2.084414359289350550E-13, 1.999999999999994005, 59.69999999999999574 ) ) ;
#150 = MANIFOLD_SOLID_BREP ( 'Corps-Déplacer/Copier1[2]', #146 ) ;
#151 = VERTEX_POINT ( 'NONE', #149 ) ;
#152 = DIRECTION ( 'NONE',  ( 3.491481338843133355E-15, -1.224646799147353207E-16, 1.000000000000000000 ) ) ;
#153 = CC_DESIGN_DATE_AND_TIME_ASSIGNMENT ( #95, #55, ( #34 ) ) ;
#154 = DIRECTION ( 'NONE',  ( -3.491481338843133355E-15, 1.224646799147353207E-16, -1.000000000000000000 ) ) ;
#155 = CARTESIAN_POINT ( 'NONE',  ( 2.793185071074506684E-14, 1.499759782661852681E-32, 8.000000000000000000 ) ) ;
#156 = AXIS2_PLACEMENT_3D ( 'NONE', #171, #137, #67 ) ;
#157 = APPROVAL_STATUS ( 'not_yet_approved' ) ;
#158 = CALENDAR_DATE ( 2021, 8, 12 ) ;
#159 = APPROVAL_STATUS ( 'not_yet_approved' ) ;
#160 = PERSON_AND_ORGANIZATION ( #30, #60 ) ;
#161 = CIRCLE ( 'NONE', #17, 1.499999999999997780 ) ;
#162 = PRODUCT_DEFINITION_SHAPE ( 'NONE', 'NONE',  #34 ) ;
#163 = AXIS2_PLACEMENT_3D ( 'NONE', #101, #9, #78 ) ;
#164 = APPROVAL ( #159, 'UNSPECIFIED' ) ;
#165 = FACE_OUTER_BOUND ( 'NONE', #199, .T. ) ;
#166 = SECURITY_CLASSIFICATION ( '', '', #124 ) ;
#167 = EDGE_LOOP ( 'NONE', ( #115 ) ) ;
#168 = DIRECTION ( 'NONE',  ( -4.456761796588771413E-31, -1.000000000000000000, -1.276467311168695019E-16 ) ) ;
#169 =( NAMED_UNIT ( * ) PLANE_ANGLE_UNIT ( ) SI_UNIT ( $, .RADIAN. ) );
#170 = VERTEX_POINT ( 'NONE', #204 ) ;
#171 = CARTESIAN_POINT ( 'NONE',  ( 2.094888803305880013E-13, -7.347880794884118356E-15, 60.00000000000000000 ) ) ;
#172 = CC_DESIGN_APPROVAL ( #21, ( #39 ) ) ;
#173 = DIRECTION ( 'NONE',  ( 0.0000000000000000000, -1.000000000000000000, 0.0000000000000000000 ) ) ;
#174 = CC_DESIGN_PERSON_AND_ORGANIZATION_ASSIGNMENT ( #74, #176, ( #39 ) ) ;
#175 = PERSON_AND_ORGANIZATION ( #30, #60 ) ;
#176 = PERSON_AND_ORGANIZATION_ROLE ( 'design_supplier' ) ;
#177 = COORDINATED_UNIVERSAL_TIME_OFFSET ( 1, 0, .AHEAD. ) ;
#178 = APPLICATION_PROTOCOL_DEFINITION ( 'international standard', 'config_control_design', 1994, #193 ) ;
#179 = PRODUCT_RELATED_PRODUCT_CATEGORY ( 'detail', '', ( #113 ) ) ;
#180 = CALENDAR_DATE ( 2021, 8, 12 ) ;
#181 = EDGE_LOOP ( 'NONE', ( #59 ) ) ;
#182 = DIRECTION ( 'NONE',  ( 4.275831445896958607E-31, 1.000000000000000000, 1.224646799147353207E-16 ) ) ;
#183 = AXIS2_PLACEMENT_3D ( 'NONE', #70, #48, #206 ) ;
#184 = ORIENTED_EDGE ( 'NONE', *, *, #148, .T. ) ;
#185 = CYLINDRICAL_SURFACE ( 'NONE', #163, 1.999999999999998224 ) ;
#186 = FACE_BOUND ( 'NONE', #181, .T. ) ;
#187 = CC_DESIGN_APPROVAL ( #43, ( #34 ) ) ;
#188 = CYLINDRICAL_SURFACE ( 'NONE', #25, 1.499999999999998224 ) ;
#189 = ADVANCED_FACE ( 'NONE', ( #102 ), #66, .F. ) ;
#190 = FACE_OUTER_BOUND ( 'NONE', #198, .T. ) ;
#191 = AXIS2_PLACEMENT_3D ( 'NONE', #18, #209, #65 ) ;
#192 = DIRECTION ( 'NONE',  ( 3.491481338843133355E-15, -1.224646799147353207E-16, 1.000000000000000000 ) ) ;
#193 = APPLICATION_CONTEXT ( 'configuration controlled 3d designs of mechanical parts and assemblies' ) ;
#194 = COORDINATED_UNIVERSAL_TIME_OFFSET ( 1, 0, .AHEAD. ) ;
#195 = CC_DESIGN_PERSON_AND_ORGANIZATION_ASSIGNMENT ( #211, #23, ( #34 ) ) ;
#196 = CALENDAR_DATE ( 2021, 8, 12 ) ;
#197 = CALENDAR_DATE ( 2021, 8, 12 ) ;
#198 = EDGE_LOOP ( 'NONE', ( #111 ) ) ;
#199 = EDGE_LOOP ( 'NONE', ( #26 ) ) ;
#200 = ORIENTED_EDGE ( 'NONE', *, *, #11, .T. ) ;
#201 = CIRCLE ( 'NONE', #191, 2.000000000000001332 ) ;
#202 =( LENGTH_UNIT ( ) NAMED_UNIT ( * ) SI_UNIT ( .MILLI., .METRE. ) );
#203 = ADVANCED_BREP_SHAPE_REPRESENTATION ( '372587', ( #82, #150, #7 ), #142 ) ;
#204 = CARTESIAN_POINT ( 'NONE',  ( 2.793185071074506684E-14, -1.499999999999998890, 8.000000000000000000 ) ) ;
#205 = LOCAL_TIME ( 9, 40, 15.00000000000000000, #19 ) ;
#206 = DIRECTION ( 'NONE',  ( 0.0000000000000000000, -1.000000000000000000, 0.0000000000000000000 ) ) ;
#207 = DIRECTION ( 'NONE',  ( 3.491481338843133355E-15, -1.276467311168695266E-16, 1.000000000000000000 ) ) ;
#208 = AXIS2_PLACEMENT_3D ( 'NONE', #97, #42, #144 ) ;
#209 = DIRECTION ( 'NONE',  ( -3.491481338843133355E-15, 1.224646799147353207E-16, -1.000000000000000000 ) ) ;
#210 = CONICAL_SURFACE ( 'NONE', #49, 1.700000000000001510, 0.7853981633974453924 ) ;
#211 = PERSON_AND_ORGANIZATION ( #30, #60 ) ;
#212 = CARTESIAN_POINT ( 'NONE',  ( 0.0000000000000000000, 0.0000000000000000000, 0.0000000000000000000 ) ) ;
#213 = EDGE_CURVE ( 'NONE', #119, #119, #56, .T. ) ;
#214 = APPROVAL_STATUS ( 'not_yet_approved' ) ;
#215 = APPROVAL_PERSON_ORGANIZATION ( #93, #21, #105 ) ;
#216 = DATE_AND_TIME ( #180, #45 ) ;
#217 = CC_DESIGN_PERSON_AND_ORGANIZATION_ASSIGNMENT ( #160, #106, ( #113 ) ) ;
#218 = ORIENTED_EDGE ( 'NONE', *, *, #136, .T. ) ;
#219 = EDGE_LOOP ( 'NONE', ( #218 ) ) ;
#220 = LOCAL_TIME ( 9, 40, 15.00000000000000000, #194 ) ;
#221 = DIRECTION ( 'NONE',  ( -4.275831445896958607E-31, -1.000000000000000000, -1.224646799147353207E-16 ) ) ;
#222 = FACE_OUTER_BOUND ( 'NONE', #99, .T. ) ;
#223 = DIRECTION ( 'NONE',  ( 3.491481338843133355E-15, -1.276467311168695266E-16, 1.000000000000000000 ) ) ;
ENDSEC;
END-ISO-10303-21;
