ISO-10303-21;
HEADER;
FILE_DESCRIPTION (( 'STEP AP203' ),
    '1' );
FILE_NAME ('372586.step',
    '2021-12-08T08:40:15',
    ( '' ),
    ( '' ),
    'SwSTEP 2.0',
    'SolidWorks 2019',
    '' );
FILE_SCHEMA (( 'CONFIG_CONTROL_DESIGN' ));
ENDSEC;

DATA;
#1 = DATE_AND_TIME ( #158, #5 ) ;
#2 = ADVANCED_FACE ( 'NONE', ( #132 ), #49, .T. ) ;
#3 = DATE_AND_TIME ( #122, #175 ) ;
#4 = FACE_BOUND ( 'NONE', #178, .T. ) ;
#5 = LOCAL_TIME ( 9, 40, 15.00000000000000000, #155 ) ;
#6 = FACE_OUTER_BOUND ( 'NONE', #168, .T. ) ;
#7 = DIRECTION ( 'NONE',  ( -3.491481338843133355E-15, 1.224646799147353207E-16, -1.000000000000000000 ) ) ;
#8 =( GEOMETRIC_REPRESENTATION_CONTEXT ( 3 ) GLOBAL_UNCERTAINTY_ASSIGNED_CONTEXT ( ( #28 ) ) GLOBAL_UNIT_ASSIGNED_CONTEXT ( ( #85, #119, #10 ) ) REPRESENTATION_CONTEXT ( 'NONE', 'WORKASPACE' ) );
#9 = DIRECTION ( 'NONE',  ( -3.491481338843133355E-15, 1.224646799147353207E-16, -1.000000000000000000 ) ) ;
#10 =( NAMED_UNIT ( * ) SI_UNIT ( $, .STERADIAN. ) SOLID_ANGLE_UNIT ( ) );
#11 = LOCAL_TIME ( 9, 40, 15.00000000000000000, #30 ) ;
#12 = PERSON_AND_ORGANIZATION ( #113, #23 ) ;
#13 = CARTESIAN_POINT ( 'NONE',  ( 5.237222008264700033E-14, 1.499999999999995559, 15.00000000000000000 ) ) ;
#14 = AXIS2_PLACEMENT_3D ( 'NONE', #193, #48, #109 ) ;
#15 = EDGE_LOOP ( 'NONE', ( #99 ) ) ;
#16 = AXIS2_PLACEMENT_3D ( 'NONE', #181, #22, #177 ) ;
#17 = EDGE_LOOP ( 'NONE', ( #21 ) ) ;
#18 = PLANE ( 'NONE',  #58 ) ;
#19 = AXIS2_PLACEMENT_3D ( 'NONE', #67, #83, #194 ) ;
#20 = DIRECTION ( 'NONE',  ( -3.491481338843133355E-15, 1.224646799147353207E-16, -1.000000000000000000 ) ) ;
#21 = ORIENTED_EDGE ( 'NONE', *, *, #125, .T. ) ;
#22 = DIRECTION ( 'NONE',  ( 3.491481338843133355E-15, -1.224646799147353207E-16, 1.000000000000000000 ) ) ;
#23 = ORGANIZATION ( 'UNSPECIFIED', 'UNSPECIFIED', '' ) ;
#24 = APPLICATION_PROTOCOL_DEFINITION ( 'international standard', 'config_control_design', 1994, #25 ) ;
#25 = APPLICATION_CONTEXT ( 'configuration controlled 3d designs of mechanical parts and assemblies' ) ;
#26 = CARTESIAN_POINT ( 'NONE',  ( 0.0000000000000000000, 0.0000000000000000000, 0.0000000000000000000 ) ) ;
#27 = DIRECTION ( 'NONE',  ( 1.000000000000000000, 0.0000000000000000000, 0.0000000000000000000 ) ) ;
#28 = UNCERTAINTY_MEASURE_WITH_UNIT (LENGTH_MEASURE( 1.000000000000000082E-05 ), #85, 'distance_accuracy_value', 'NONE');
#29 = CC_DESIGN_PERSON_AND_ORGANIZATION_ASSIGNMENT ( #12, #104, ( #169 ) ) ;
#30 = COORDINATED_UNIVERSAL_TIME_OFFSET ( 1, 0, .AHEAD. ) ;
#31 = AXIS2_PLACEMENT_3D ( 'NONE', #94, #9, #110 ) ;
#32 = CALENDAR_DATE ( 2021, 8, 12 ) ;
#33 = AXIS2_PLACEMENT_3D ( 'NONE', #197, #146, #111 ) ;
#34 = CARTESIAN_POINT ( 'NONE',  ( 1.745740669421566678E-13, -6.123233995736766085E-15, 50.00000000000000000 ) ) ;
#35 = EDGE_LOOP ( 'NONE', ( #187 ) ) ;
#36 = DIRECTION ( 'NONE',  ( 0.0000000000000000000, 1.000000000000000000, 0.0000000000000000000 ) ) ;
#37 = CC_DESIGN_SECURITY_CLASSIFICATION ( #55, ( #169 ) ) ;
#38 = EDGE_LOOP ( 'NONE', ( #91 ) ) ;
#39 = ORIENTED_EDGE ( 'NONE', *, *, #143, .F. ) ;
#40 = DIRECTION ( 'NONE',  ( 0.0000000000000000000, 0.0000000000000000000, 1.000000000000000000 ) ) ;
#41 = DATE_AND_TIME ( #105, #46 ) ;
#42 = PERSON_AND_ORGANIZATION ( #113, #23 ) ;
#43 = CALENDAR_DATE ( 2021, 8, 12 ) ;
#44 = CIRCLE ( 'NONE', #191, 1.500000000000001554 ) ;
#45 = ORIENTED_EDGE ( 'NONE', *, *, #184, .T. ) ;
#46 = LOCAL_TIME ( 9, 40, 15.00000000000000000, #135 ) ;
#47 = LOCAL_TIME ( 9, 40, 15.00000000000000000, #118 ) ;
#48 = DIRECTION ( 'NONE',  ( -3.491481338843133355E-15, 1.224646799147353207E-16, -1.000000000000000000 ) ) ;
#49 = PLANE ( 'NONE',  #152 ) ;
#50 = FACE_OUTER_BOUND ( 'NONE', #17, .T. ) ;
#51 = CIRCLE ( 'NONE', #31, 1.499999999999997113 ) ;
#52 = DIRECTION ( 'NONE',  ( -3.491481338843133355E-15, 1.224646799147353207E-16, -1.000000000000000000 ) ) ;
#53 = DIRECTION ( 'NONE',  ( 4.275831445896958607E-31, 1.000000000000000000, 1.224646799147353207E-16 ) ) ;
#54 = CC_DESIGN_DATE_AND_TIME_ASSIGNMENT ( #121, #71, ( #98 ) ) ;
#55 = SECURITY_CLASSIFICATION ( '', '', #201 ) ;
#56 = APPROVAL_ROLE ( '' ) ;
#57 = CARTESIAN_POINT ( 'NONE',  ( 1.745740669421566678E-13, 1.199999999999995515, 50.00000000000000000 ) ) ;
#58 = AXIS2_PLACEMENT_3D ( 'NONE', #97, #20, #82 ) ;
#59 = APPLICATION_CONTEXT ( 'configuration controlled 3d designs of mechanical parts and assemblies' ) ;
#60 = APPROVAL_STATUS ( 'not_yet_approved' ) ;
#61 = DESIGN_CONTEXT ( 'detailed design', #59, 'design' ) ;
#62 = CC_DESIGN_PERSON_AND_ORGANIZATION_ASSIGNMENT ( #157, #137, ( #169 ) ) ;
#63 = SHAPE_DEFINITION_REPRESENTATION ( #92, #112 ) ;
#64 = FACE_OUTER_BOUND ( 'NONE', #38, .T. ) ;
#65 = ADVANCED_FACE ( 'NONE', ( #115 ), #130, .F. ) ;
#66 = DIRECTION ( 'NONE',  ( -3.491481338843133355E-15, 1.224646799147353207E-16, -1.000000000000000000 ) ) ;
#67 = CARTESIAN_POINT ( 'NONE',  ( 5.237222008264700033E-14, -1.836970198721029589E-15, 15.00000000000000000 ) ) ;
#68 = DIRECTION ( 'NONE',  ( -4.275831445896958607E-31, -1.000000000000000000, -1.224646799147353207E-16 ) ) ;
#69 = DIRECTION ( 'NONE',  ( -4.275831445896958607E-31, -1.000000000000000000, -1.224646799147353207E-16 ) ) ;
#70 = ORIENTED_EDGE ( 'NONE', *, *, #134, .T. ) ;
#71 = DATE_TIME_ROLE ( 'creation_date' ) ;
#72 = AXIS2_PLACEMENT_3D ( 'NONE', #179, #164, #127 ) ;
#73 = APPROVAL ( #116, 'UNSPECIFIED' ) ;
#74 = APPROVAL_DATE_TIME ( #1, #161 ) ;
#75 = CARTESIAN_POINT ( 'NONE',  ( 1.735266225405037467E-13, 1.499999999999995559, 49.70000000000000284 ) ) ;
#76 = CLOSED_SHELL ( 'NONE', ( #65, #200, #2 ) ) ;
#77 = AXIS2_PLACEMENT_3D ( 'NONE', #34, #52, #36 ) ;
#78 = COORDINATED_UNIVERSAL_TIME_OFFSET ( 1, 0, .AHEAD. ) ;
#79 = CYLINDRICAL_SURFACE ( 'NONE', #33, 1.499999999999999334 ) ;
#80 = CARTESIAN_POINT ( 'NONE',  ( 1.735266225405037467E-13, -6.086494591762345225E-15, 49.70000000000000284 ) ) ;
#81 = FACE_OUTER_BOUND ( 'NONE', #163, .T. ) ;
#82 = DIRECTION ( 'NONE',  ( 4.275831445896958607E-31, 1.000000000000000000, 1.224646799147353207E-16 ) ) ;
#83 = DIRECTION ( 'NONE',  ( -3.491481338843133355E-15, 1.224646799147353207E-16, -1.000000000000000000 ) ) ;
#84 = APPLICATION_PROTOCOL_DEFINITION ( 'international standard', 'config_control_design', 1994, #59 ) ;
#85 =( LENGTH_UNIT ( ) NAMED_UNIT ( * ) SI_UNIT ( .MILLI., .METRE. ) );
#86 = PERSON_AND_ORGANIZATION_ROLE ( 'classification_officer' ) ;
#87 = PERSON_AND_ORGANIZATION_ROLE ( 'creator' ) ;
#88 = PERSON_AND_ORGANIZATION ( #113, #23 ) ;
#89 = CC_DESIGN_PERSON_AND_ORGANIZATION_ASSIGNMENT ( #88, #141, ( #124 ) ) ;
#90 = APPROVAL_PERSON_ORGANIZATION ( #139, #161, #56 ) ;
#91 = ORIENTED_EDGE ( 'NONE', *, *, #149, .T. ) ;
#92 = PRODUCT_DEFINITION_SHAPE ( 'NONE', 'NONE',  #98 ) ;
#93 = ORIENTED_EDGE ( 'NONE', *, *, #134, .F. ) ;
#94 = CARTESIAN_POINT ( 'NONE',  ( 5.237222008264700033E-14, -1.836970198721029589E-15, 15.00000000000000000 ) ) ;
#95 = CC_DESIGN_APPROVAL ( #73, ( #169 ) ) ;
#96 = DIRECTION ( 'NONE',  ( 0.0000000000000000000, 1.000000000000000000, 0.0000000000000000000 ) ) ;
#97 = CARTESIAN_POINT ( 'NONE',  ( 1.745740669421566678E-13, 8.998558695971067645E-33, 50.00000000000000000 ) ) ;
#98 = PRODUCT_DEFINITION ( 'UNKNOWN', '', #169, #61 ) ;
#99 = ORIENTED_EDGE ( 'NONE', *, *, #184, .F. ) ;
#100 = EDGE_LOOP ( 'NONE', ( #70 ) ) ;
#101 = VERTEX_POINT ( 'NONE', #198 ) ;
#102 = PRODUCT_RELATED_PRODUCT_CATEGORY ( 'detail', '', ( #124 ) ) ;
#103 = MECHANICAL_CONTEXT ( 'NONE', #25, 'mechanical' ) ;
#104 = PERSON_AND_ORGANIZATION_ROLE ( 'design_supplier' ) ;
#105 = CALENDAR_DATE ( 2021, 8, 12 ) ;
#106 = CONICAL_SURFACE ( 'NONE', #72, 1.200000000000001732, 0.7853981633974453924 ) ;
#107 = DATE_TIME_ROLE ( 'classification_date' ) ;
#108 = ADVANCED_FACE ( 'NONE', ( #148 ), #18, .F. ) ;
#109 = DIRECTION ( 'NONE',  ( 4.275831445896958607E-31, 1.000000000000000000, 1.224646799147352961E-16 ) ) ;
#110 = DIRECTION ( 'NONE',  ( 0.0000000000000000000, 1.000000000000000000, 0.0000000000000000000 ) ) ;
#111 = DIRECTION ( 'NONE',  ( 4.275831445896958607E-31, 1.000000000000000000, 1.224646799147353454E-16 ) ) ;
#112 = ADVANCED_BREP_SHAPE_REPRESENTATION ( '372586', ( #199, #129, #182 ), #8 ) ;
#113 = PERSON ( 'UNSPECIFIED', 'UNSPECIFIED', 'UNSPECIFIED', ('UNSPECIFIED'), ('UNSPECIFIED'), ('UNSPECIFIED') ) ;
#114 = CYLINDRICAL_SURFACE ( 'NONE', #14, 1.499999999999996447 ) ;
#115 = FACE_OUTER_BOUND ( 'NONE', #35, .T. ) ;
#116 = APPROVAL_STATUS ( 'not_yet_approved' ) ;
#117 = VERTEX_POINT ( 'NONE', #57 ) ;
#118 = COORDINATED_UNIVERSAL_TIME_OFFSET ( 1, 0, .AHEAD. ) ;
#119 =( NAMED_UNIT ( * ) PLANE_ANGLE_UNIT ( ) SI_UNIT ( $, .RADIAN. ) );
#120 = CLOSED_SHELL ( 'NONE', ( #145, #180, #192, #108 ) ) ;
#121 = DATE_AND_TIME ( #43, #47 ) ;
#122 = CALENDAR_DATE ( 2021, 8, 12 ) ;
#123 = CC_DESIGN_APPROVAL ( #140, ( #55 ) ) ;
#124 = PRODUCT ( '372586', '372586', '', ( #103 ) ) ;
#125 = EDGE_CURVE ( 'NONE', #202, #202, #144, .T. ) ;
#126 = CIRCLE ( 'NONE', #77, 1.200000000000001732 ) ;
#127 = DIRECTION ( 'NONE',  ( 0.0000000000000000000, 1.000000000000000000, 0.0000000000000000000 ) ) ;
#128 = CARTESIAN_POINT ( 'NONE',  ( 5.237222008264700033E-14, 1.124819836996388553E-32, 15.00000000000000000 ) ) ;
#129 = MANIFOLD_SOLID_BREP ( 'Corps-Déplacer/Copier1[2]', #76 ) ;
#130 = PLANE ( 'NONE',  #16 ) ;
#131 = AXIS2_PLACEMENT_3D ( 'NONE', #151, #7, #53 ) ;
#132 = FACE_OUTER_BOUND ( 'NONE', #138, .T. ) ;
#133 = ORIENTED_EDGE ( 'NONE', *, *, #125, .F. ) ;
#134 = EDGE_CURVE ( 'NONE', #203, #203, #44, .T. ) ;
#135 = COORDINATED_UNIVERSAL_TIME_OFFSET ( 1, 0, .AHEAD. ) ;
#136 = AXIS2_PLACEMENT_3D ( 'NONE', #128, #176, #68 ) ;
#137 = PERSON_AND_ORGANIZATION_ROLE ( 'creator' ) ;
#138 = EDGE_LOOP ( 'NONE', ( #133 ) ) ;
#139 = PERSON_AND_ORGANIZATION ( #113, #23 ) ;
#140 = APPROVAL ( #60, 'UNSPECIFIED' ) ;
#141 = PERSON_AND_ORGANIZATION_ROLE ( 'design_owner' ) ;
#142 = CC_DESIGN_APPROVAL ( #161, ( #98 ) ) ;
#143 = EDGE_CURVE ( 'NONE', #101, #101, #153, .T. ) ;
#144 = CIRCLE ( 'NONE', #19, 1.499999999999997113 ) ;
#145 = ADVANCED_FACE ( 'NONE', ( #64 ), #195, .F. ) ;
#146 = DIRECTION ( 'NONE',  ( -3.491481338843133355E-15, 1.224646799147353207E-16, -1.000000000000000000 ) ) ;
#147 = APPROVAL_PERSON_ORGANIZATION ( #183, #73, #185 ) ;
#148 = FACE_OUTER_BOUND ( 'NONE', #15, .T. ) ;
#149 = EDGE_CURVE ( 'NONE', #170, #170, #51, .T. ) ;
#150 = CARTESIAN_POINT ( 'NONE',  ( 5.237222008264700033E-14, 1.124819836996388553E-32, 15.00000000000000000 ) ) ;
#151 = CARTESIAN_POINT ( 'NONE',  ( -5.344693376282566726E-31, 1.874666080230932457E-32, -1.530781023178395540E-16 ) ) ;
#152 = AXIS2_PLACEMENT_3D ( 'NONE', #150, #154, #69 ) ;
#153 = CIRCLE ( 'NONE', #131, 1.499999999999995559 ) ;
#154 = DIRECTION ( 'NONE',  ( 3.491481338843133355E-15, -1.224646799147353207E-16, 1.000000000000000000 ) ) ;
#155 = COORDINATED_UNIVERSAL_TIME_OFFSET ( 1, 0, .AHEAD. ) ;
#156 = PERSON_AND_ORGANIZATION ( #113, #23 ) ;
#157 = PERSON_AND_ORGANIZATION ( #113, #23 ) ;
#158 = CALENDAR_DATE ( 2021, 8, 12 ) ;
#159 = CC_DESIGN_DATE_AND_TIME_ASSIGNMENT ( #3, #107, ( #55 ) ) ;
#160 = DATE_AND_TIME ( #32, #11 ) ;
#161 = APPROVAL ( #188, 'UNSPECIFIED' ) ;
#162 = APPROVAL_DATE_TIME ( #160, #140 ) ;
#163 = EDGE_LOOP ( 'NONE', ( #93 ) ) ;
#164 = DIRECTION ( 'NONE',  ( -3.491481338843133355E-15, 1.224646799147353207E-16, -1.000000000000000000 ) ) ;
#165 = APPROVAL_PERSON_ORGANIZATION ( #189, #140, #174 ) ;
#166 = FACE_OUTER_BOUND ( 'NONE', #186, .T. ) ;
#167 = ORIENTED_EDGE ( 'NONE', *, *, #149, .F. ) ;
#168 = EDGE_LOOP ( 'NONE', ( #39 ) ) ;
#169 = PRODUCT_DEFINITION_FORMATION_WITH_SPECIFIED_SOURCE ( 'ANY', '', #124, .NOT_KNOWN. ) ;
#170 = VERTEX_POINT ( 'NONE', #173 ) ;
#171 = APPROVAL_DATE_TIME ( #41, #73 ) ;
#172 = CC_DESIGN_PERSON_AND_ORGANIZATION_ASSIGNMENT ( #42, #86, ( #55 ) ) ;
#173 = CARTESIAN_POINT ( 'NONE',  ( 5.237222008264700033E-14, 1.499999999999995559, 15.00000000000000000 ) ) ;
#174 = APPROVAL_ROLE ( '' ) ;
#175 = LOCAL_TIME ( 9, 40, 15.00000000000000000, #78 ) ;
#176 = DIRECTION ( 'NONE',  ( 3.491481338843133355E-15, -1.224646799147353207E-16, 1.000000000000000000 ) ) ;
#177 = DIRECTION ( 'NONE',  ( -4.275831445896958607E-31, -1.000000000000000000, -1.224646799147353207E-16 ) ) ;
#178 = EDGE_LOOP ( 'NONE', ( #45 ) ) ;
#179 = CARTESIAN_POINT ( 'NONE',  ( 1.745740669421566678E-13, -6.123233995736766085E-15, 50.00000000000000000 ) ) ;
#180 = ADVANCED_FACE ( 'NONE', ( #166, #196 ), #79, .T. ) ;
#181 = CARTESIAN_POINT ( 'NONE',  ( -2.672346688141283363E-31, 9.373330401154662283E-33, -7.653905115891977700E-17 ) ) ;
#182 = AXIS2_PLACEMENT_3D ( 'NONE', #26, #40, #27 ) ;
#183 = PERSON_AND_ORGANIZATION ( #113, #23 ) ;
#184 = EDGE_CURVE ( 'NONE', #117, #117, #126, .T. ) ;
#185 = APPROVAL_ROLE ( '' ) ;
#186 = EDGE_LOOP ( 'NONE', ( #167 ) ) ;
#187 = ORIENTED_EDGE ( 'NONE', *, *, #143, .T. ) ;
#188 = APPROVAL_STATUS ( 'not_yet_approved' ) ;
#189 = PERSON_AND_ORGANIZATION ( #113, #23 ) ;
#190 = CC_DESIGN_PERSON_AND_ORGANIZATION_ASSIGNMENT ( #156, #87, ( #98 ) ) ;
#191 = AXIS2_PLACEMENT_3D ( 'NONE', #80, #66, #96 ) ;
#192 = ADVANCED_FACE ( 'NONE', ( #81, #4 ), #106, .T. ) ;
#193 = CARTESIAN_POINT ( 'NONE',  ( 0.0000000000000000000, 0.0000000000000000000, 0.0000000000000000000 ) ) ;
#194 = DIRECTION ( 'NONE',  ( 0.0000000000000000000, 1.000000000000000000, 0.0000000000000000000 ) ) ;
#195 = PLANE ( 'NONE',  #136 ) ;
#196 = FACE_OUTER_BOUND ( 'NONE', #100, .T. ) ;
#197 = CARTESIAN_POINT ( 'NONE',  ( 0.0000000000000000000, 0.0000000000000000000, 0.0000000000000000000 ) ) ;
#198 = CARTESIAN_POINT ( 'NONE',  ( 1.069053792562852354E-31, 1.499999999999995559, 3.061891755426287241E-17 ) ) ;
#199 = MANIFOLD_SOLID_BREP ( 'Corps-Déplacer/Copier1[1]', #120 ) ;
#200 = ADVANCED_FACE ( 'NONE', ( #6, #50 ), #114, .T. ) ;
#201 = SECURITY_CLASSIFICATION_LEVEL ( 'unclassified' ) ;
#202 = VERTEX_POINT ( 'NONE', #13 ) ;
#203 = VERTEX_POINT ( 'NONE', #75 ) ;
ENDSEC;
END-ISO-10303-21;
