ISO-10303-21;
HEADER;
FILE_DESCRIPTION (( 'STEP AP203' ),
    '1' );
FILE_NAME ('372585.step',
    '2021-12-08T08:40:14',
    ( '' ),
    ( '' ),
    'SwSTEP 2.0',
    'SolidWorks 2019',
    '' );
FILE_SCHEMA (( 'CONFIG_CONTROL_DESIGN' ));
ENDSEC;

DATA;
#1 = ADVANCED_FACE ( 'NONE', ( #36 ), #89, .F. ) ;
#2 = MANIFOLD_SOLID_BREP ( 'Corps-Déplacer/Copier1[1]', #67 ) ;
#3 = CIRCLE ( 'NONE', #43, 1.500000000000000888 ) ;
#4 = PRODUCT_RELATED_PRODUCT_CATEGORY ( 'detail', '', ( #73 ) ) ;
#5 = CONICAL_SURFACE ( 'NONE', #86, 1.200000000000001066, 0.7853981633974453924 ) ;
#6 = PERSON_AND_ORGANIZATION ( #151, #179 ) ;
#7 = CC_DESIGN_DATE_AND_TIME_ASSIGNMENT ( #26, #195, ( #93 ) ) ;
#8 = CC_DESIGN_APPROVAL ( #133, ( #77 ) ) ;
#9 = PERSON_AND_ORGANIZATION ( #151, #179 ) ;
#10 = CARTESIAN_POINT ( 'NONE',  ( 0.0000000000000000000, 0.0000000000000000000, 0.0000000000000000000 ) ) ;
#11 = UNCERTAINTY_MEASURE_WITH_UNIT (LENGTH_MEASURE( 1.000000000000000082E-05 ), #196, 'distance_accuracy_value', 'NONE');
#12 = DIRECTION ( 'NONE',  ( 3.491481338843133355E-15, -1.224646799147353207E-16, 1.000000000000000000 ) ) ;
#13 = AXIS2_PLACEMENT_3D ( 'NONE', #157, #153, #142 ) ;
#14 = CARTESIAN_POINT ( 'NONE',  ( 1.316288464743861212E-13, -4.616918432785521081E-15, 37.69999999999999574 ) ) ;
#15 = FACE_OUTER_BOUND ( 'NONE', #82, .T. ) ;
#16 = ORIENTED_EDGE ( 'NONE', *, *, #180, .T. ) ;
#17 = CARTESIAN_POINT ( 'NONE',  ( 0.0000000000000000000, 0.0000000000000000000, 0.0000000000000000000 ) ) ;
#18 = LOCAL_TIME ( 9, 40, 14.00000000000000000, #94 ) ;
#19 = EDGE_LOOP ( 'NONE', ( #188 ) ) ;
#20 = ORIENTED_EDGE ( 'NONE', *, *, #24, .T. ) ;
#21 = CIRCLE ( 'NONE', #198, 1.499999999999996891 ) ;
#22 = APPLICATION_PROTOCOL_DEFINITION ( 'international standard', 'config_control_design', 1994, #31 ) ;
#23 = PRODUCT_DEFINITION_SHAPE ( 'NONE', 'NONE',  #93 ) ;
#24 = EDGE_CURVE ( 'NONE', #50, #50, #21, .T. ) ;
#25 = DIRECTION ( 'NONE',  ( -3.491481338843133355E-15, 1.224646799147353207E-16, -1.000000000000000000 ) ) ;
#26 = DATE_AND_TIME ( #137, #53 ) ;
#27 = COORDINATED_UNIVERSAL_TIME_OFFSET ( 1, 0, .AHEAD. ) ;
#28 = CALENDAR_DATE ( 2021, 8, 12 ) ;
#29 = FACE_OUTER_BOUND ( 'NONE', #106, .T. ) ;
#30 = CARTESIAN_POINT ( 'NONE',  ( 3.491481338843133355E-14, -1.224646799147353256E-15, 10.00000000000000000 ) ) ;
#31 = APPLICATION_CONTEXT ( 'configuration controlled 3d designs of mechanical parts and assemblies' ) ;
#32 = DIRECTION ( 'NONE',  ( -3.491481338843133355E-15, 1.224646799147353207E-16, -1.000000000000000000 ) ) ;
#33 = DESIGN_CONTEXT ( 'detailed design', #37, 'design' ) ;
#34 = DIRECTION ( 'NONE',  ( 4.275831445896958607E-31, 1.000000000000000000, 1.224646799147353454E-16 ) ) ;
#35 = PERSON_AND_ORGANIZATION ( #151, #179 ) ;
#36 = FACE_OUTER_BOUND ( 'NONE', #189, .T. ) ;
#37 = APPLICATION_CONTEXT ( 'configuration controlled 3d designs of mechanical parts and assemblies' ) ;
#38 = SECURITY_CLASSIFICATION ( '', '', #135 ) ;
#39 = DIRECTION ( 'NONE',  ( 0.0000000000000000000, 0.0000000000000000000, 1.000000000000000000 ) ) ;
#40 = VERTEX_POINT ( 'NONE', #134 ) ;
#41 = COORDINATED_UNIVERSAL_TIME_OFFSET ( 1, 0, .AHEAD. ) ;
#42 = APPROVAL_STATUS ( 'not_yet_approved' ) ;
#43 = AXIS2_PLACEMENT_3D ( 'NONE', #14, #83, #113 ) ;
#44 = APPROVAL_DATE_TIME ( #64, #91 ) ;
#45 = DATE_AND_TIME ( #28, #108 ) ;
#46 = DIRECTION ( 'NONE',  ( 0.0000000000000000000, 1.000000000000000000, 0.0000000000000000000 ) ) ;
#47 = APPROVAL_DATE_TIME ( #45, #133 ) ;
#48 =( NAMED_UNIT ( * ) SI_UNIT ( $, .STERADIAN. ) SOLID_ANGLE_UNIT ( ) );
#49 = EDGE_LOOP ( 'NONE', ( #70 ) ) ;
#50 = VERTEX_POINT ( 'NONE', #92 ) ;
#51 = FACE_OUTER_BOUND ( 'NONE', #186, .T. ) ;
#52 = EDGE_CURVE ( 'NONE', #193, #193, #3, .T. ) ;
#53 = LOCAL_TIME ( 9, 40, 14.00000000000000000, #41 ) ;
#54 = FACE_OUTER_BOUND ( 'NONE', #100, .T. ) ;
#55 = CARTESIAN_POINT ( 'NONE',  ( 0.0000000000000000000, 0.0000000000000000000, 0.0000000000000000000 ) ) ;
#56 = ORIENTED_EDGE ( 'NONE', *, *, #116, .T. ) ;
#57 = AXIS2_PLACEMENT_3D ( 'NONE', #17, #138, #34 ) ;
#58 = CC_DESIGN_PERSON_AND_ORGANIZATION_ASSIGNMENT ( #6, #177, ( #77 ) ) ;
#59 = APPROVAL ( #66, 'UNSPECIFIED' ) ;
#60 = CC_DESIGN_APPROVAL ( #91, ( #38 ) ) ;
#61 =( NAMED_UNIT ( * ) PLANE_ANGLE_UNIT ( ) SI_UNIT ( $, .RADIAN. ) );
#62 = PERSON_AND_ORGANIZATION ( #151, #179 ) ;
#63 = LOCAL_TIME ( 9, 40, 14.00000000000000000, #110 ) ;
#64 = DATE_AND_TIME ( #165, #141 ) ;
#65 = CALENDAR_DATE ( 2021, 8, 12 ) ;
#66 = APPROVAL_STATUS ( 'not_yet_approved' ) ;
#67 = CLOSED_SHELL ( 'NONE', ( #194, #159, #119, #124 ) ) ;
#68 = FACE_OUTER_BOUND ( 'NONE', #115, .T. ) ;
#69 = DIRECTION ( 'NONE',  ( 0.0000000000000000000, 1.000000000000000000, 0.0000000000000000000 ) ) ;
#70 = ORIENTED_EDGE ( 'NONE', *, *, #52, .F. ) ;
#71 = PERSON_AND_ORGANIZATION ( #151, #179 ) ;
#72 = AXIS2_PLACEMENT_3D ( 'NONE', #172, #32, #102 ) ;
#73 = PRODUCT ( '372585', '372585', '', ( #131 ) ) ;
#74 = APPROVAL_ROLE ( '' ) ;
#75 = CARTESIAN_POINT ( 'NONE',  ( 1.326762908760390423E-13, 1.199999999999996403, 38.00000000000000000 ) ) ;
#76 = APPROVAL_STATUS ( 'not_yet_approved' ) ;
#77 = PRODUCT_DEFINITION_FORMATION_WITH_SPECIFIED_SOURCE ( 'ANY', '', #73, .NOT_KNOWN. ) ;
#78 = EDGE_CURVE ( 'NONE', #40, #40, #121, .T. ) ;
#79 = DATE_AND_TIME ( #166, #63 ) ;
#80 = FACE_OUTER_BOUND ( 'NONE', #173, .T. ) ;
#81 = DATE_AND_TIME ( #65, #18 ) ;
#82 = EDGE_LOOP ( 'NONE', ( #174 ) ) ;
#83 = DIRECTION ( 'NONE',  ( -3.491481338843133355E-15, 1.224646799147353207E-16, -1.000000000000000000 ) ) ;
#84 = CC_DESIGN_PERSON_AND_ORGANIZATION_ASSIGNMENT ( #9, #197, ( #38 ) ) ;
#85 = DIRECTION ( 'NONE',  ( -3.491481338843133355E-15, 1.224646799147353207E-16, -1.000000000000000000 ) ) ;
#86 = AXIS2_PLACEMENT_3D ( 'NONE', #203, #85, #69 ) ;
#87 = FACE_OUTER_BOUND ( 'NONE', #49, .T. ) ;
#88 = DIRECTION ( 'NONE',  ( 0.0000000000000000000, 1.000000000000000000, 0.0000000000000000000 ) ) ;
#89 = PLANE ( 'NONE',  #191 ) ;
#90 = CC_DESIGN_APPROVAL ( #59, ( #93 ) ) ;
#91 = APPROVAL ( #76, 'UNSPECIFIED' ) ;
#92 = CARTESIAN_POINT ( 'NONE',  ( 3.491481338843133355E-14, 1.499999999999995781, 10.00000000000000000 ) ) ;
#93 = PRODUCT_DEFINITION ( 'UNKNOWN', '', #77, #33 ) ;
#94 = COORDINATED_UNIVERSAL_TIME_OFFSET ( 1, 0, .AHEAD. ) ;
#95 = CC_DESIGN_PERSON_AND_ORGANIZATION_ASSIGNMENT ( #35, #129, ( #73 ) ) ;
#96 = COORDINATED_UNIVERSAL_TIME_OFFSET ( 1, 0, .AHEAD. ) ;
#97 = CARTESIAN_POINT ( 'NONE',  ( 3.491481338843133355E-14, 1.124819836996388964E-32, 10.00000000000000000 ) ) ;
#98 = APPROVAL_PERSON_ORGANIZATION ( #71, #59, #199 ) ;
#99 = FACE_BOUND ( 'NONE', #202, .T. ) ;
#100 = EDGE_LOOP ( 'NONE', ( #104 ) ) ;
#101 = CARTESIAN_POINT ( 'NONE',  ( 1.326762908760390423E-13, 8.998558695971084067E-33, 38.00000000000000000 ) ) ;
#102 = DIRECTION ( 'NONE',  ( 4.275831445896958607E-31, 1.000000000000000000, 1.224646799147353207E-16 ) ) ;
#103 = PLANE ( 'NONE',  #13 ) ;
#104 = ORIENTED_EDGE ( 'NONE', *, *, #52, .T. ) ;
#105 = CC_DESIGN_PERSON_AND_ORGANIZATION_ASSIGNMENT ( #62, #111, ( #77 ) ) ;
#106 = EDGE_LOOP ( 'NONE', ( #20 ) ) ;
#107 = APPROVAL_DATE_TIME ( #79, #59 ) ;
#108 = LOCAL_TIME ( 9, 40, 14.00000000000000000, #96 ) ;
#109 = DATE_TIME_ROLE ( 'classification_date' ) ;
#110 = COORDINATED_UNIVERSAL_TIME_OFFSET ( 1, 0, .AHEAD. ) ;
#111 = PERSON_AND_ORGANIZATION_ROLE ( 'creator' ) ;
#112 = DIRECTION ( 'NONE',  ( 3.491481338843133355E-15, -1.224646799147353207E-16, 1.000000000000000000 ) ) ;
#113 = DIRECTION ( 'NONE',  ( 0.0000000000000000000, 1.000000000000000000, 0.0000000000000000000 ) ) ;
#114 = CYLINDRICAL_SURFACE ( 'NONE', #57, 1.499999999999998890 ) ;
#115 = EDGE_LOOP ( 'NONE', ( #140 ) ) ;
#116 = EDGE_CURVE ( 'NONE', #162, #162, #144, .T. ) ;
#117 = AXIS2_PLACEMENT_3D ( 'NONE', #55, #39, #158 ) ;
#118 = CIRCLE ( 'NONE', #175, 1.499999999999996891 ) ;
#119 = ADVANCED_FACE ( 'NONE', ( #87, #99 ), #5, .T. ) ;
#120 = FACE_OUTER_BOUND ( 'NONE', #19, .T. ) ;
#121 = CIRCLE ( 'NONE', #72, 1.499999999999995559 ) ;
#122 =( GEOMETRIC_REPRESENTATION_CONTEXT ( 3 ) GLOBAL_UNCERTAINTY_ASSIGNED_CONTEXT ( ( #11 ) ) GLOBAL_UNIT_ASSIGNED_CONTEXT ( ( #196, #61, #48 ) ) REPRESENTATION_CONTEXT ( 'NONE', 'WORKASPACE' ) );
#123 = DIRECTION ( 'NONE',  ( -3.491481338843133355E-15, 1.224646799147353207E-16, -1.000000000000000000 ) ) ;
#124 = ADVANCED_FACE ( 'NONE', ( #68 ), #154, .F. ) ;
#125 = DIRECTION ( 'NONE',  ( 0.0000000000000000000, 1.000000000000000000, 0.0000000000000000000 ) ) ;
#126 = ORIENTED_EDGE ( 'NONE', *, *, #180, .F. ) ;
#127 = DIRECTION ( 'NONE',  ( 4.275831445896958607E-31, 1.000000000000000000, 1.224646799147353207E-16 ) ) ;
#128 = ORIENTED_EDGE ( 'NONE', *, *, #78, .T. ) ;
#129 = PERSON_AND_ORGANIZATION_ROLE ( 'design_owner' ) ;
#130 = MANIFOLD_SOLID_BREP ( 'Corps-Déplacer/Copier1[2]', #160 ) ;
#131 = MECHANICAL_CONTEXT ( 'NONE', #31, 'mechanical' ) ;
#132 = AXIS2_PLACEMENT_3D ( 'NONE', #156, #169, #125 ) ;
#133 = APPROVAL ( #42, 'UNSPECIFIED' ) ;
#134 = CARTESIAN_POINT ( 'NONE',  ( 1.069038471153452680E-31, 1.499999999999995559, 3.061847873165684080E-17 ) ) ;
#135 = SECURITY_CLASSIFICATION_LEVEL ( 'unclassified' ) ;
#136 = APPROVAL_ROLE ( '' ) ;
#137 = CALENDAR_DATE ( 2021, 8, 12 ) ;
#138 = DIRECTION ( 'NONE',  ( -3.491481338843133355E-15, 1.224646799147353207E-16, -1.000000000000000000 ) ) ;
#139 = DIRECTION ( 'NONE',  ( -3.491481338843133355E-15, 1.224646799147353207E-16, -1.000000000000000000 ) ) ;
#140 = ORIENTED_EDGE ( 'NONE', *, *, #116, .F. ) ;
#141 = LOCAL_TIME ( 9, 40, 14.00000000000000000, #27 ) ;
#142 = DIRECTION ( 'NONE',  ( -4.275831445896958607E-31, -1.000000000000000000, -1.224646799147353207E-16 ) ) ;
#143 = CARTESIAN_POINT ( 'NONE',  ( -2.672354348845982871E-31, 9.373357271289655576E-33, -7.653927057022279588E-17 ) ) ;
#144 = CIRCLE ( 'NONE', #132, 1.200000000000001066 ) ;
#145 = APPLICATION_PROTOCOL_DEFINITION ( 'international standard', 'config_control_design', 1994, #37 ) ;
#146 = APPROVAL_PERSON_ORGANIZATION ( #181, #91, #136 ) ;
#147 = VERTEX_POINT ( 'NONE', #148 ) ;
#148 = CARTESIAN_POINT ( 'NONE',  ( 3.491481338843133355E-14, 1.499999999999995781, 10.00000000000000000 ) ) ;
#149 = PERSON_AND_ORGANIZATION ( #151, #179 ) ;
#150 = CYLINDRICAL_SURFACE ( 'NONE', #163, 1.499999999999996225 ) ;
#151 = PERSON ( 'UNSPECIFIED', 'UNSPECIFIED', 'UNSPECIFIED', ('UNSPECIFIED'), ('UNSPECIFIED'), ('UNSPECIFIED') ) ;
#152 = DIRECTION ( 'NONE',  ( 4.275831445896958607E-31, 1.000000000000000000, 1.224646799147353207E-16 ) ) ;
#153 = DIRECTION ( 'NONE',  ( 3.491481338843133355E-15, -1.224646799147353207E-16, 1.000000000000000000 ) ) ;
#154 = PLANE ( 'NONE',  #176 ) ;
#155 = ADVANCED_BREP_SHAPE_REPRESENTATION ( '372585', ( #2, #130, #117 ), #122 ) ;
#156 = CARTESIAN_POINT ( 'NONE',  ( 1.326762908760390423E-13, -4.653657836759941941E-15, 38.00000000000000000 ) ) ;
#157 = CARTESIAN_POINT ( 'NONE',  ( 3.491481338843133355E-14, 1.124819836996388964E-32, 10.00000000000000000 ) ) ;
#158 = DIRECTION ( 'NONE',  ( 1.000000000000000000, 0.0000000000000000000, 0.0000000000000000000 ) ) ;
#159 = ADVANCED_FACE ( 'NONE', ( #51, #54 ), #114, .T. ) ;
#160 = CLOSED_SHELL ( 'NONE', ( #1, #190, #161 ) ) ;
#161 = ADVANCED_FACE ( 'NONE', ( #15 ), #103, .T. ) ;
#162 = VERTEX_POINT ( 'NONE', #75 ) ;
#163 = AXIS2_PLACEMENT_3D ( 'NONE', #10, #123, #152 ) ;
#164 = CARTESIAN_POINT ( 'NONE',  ( 1.316288464743861212E-13, 1.499999999999996447, 37.69999999999999574 ) ) ;
#165 = CALENDAR_DATE ( 2021, 8, 12 ) ;
#166 = CALENDAR_DATE ( 2021, 8, 12 ) ;
#167 = SHAPE_DEFINITION_REPRESENTATION ( #23, #155 ) ;
#168 = CC_DESIGN_PERSON_AND_ORGANIZATION_ASSIGNMENT ( #182, #183, ( #93 ) ) ;
#169 = DIRECTION ( 'NONE',  ( -3.491481338843133355E-15, 1.224646799147353207E-16, -1.000000000000000000 ) ) ;
#170 = DIRECTION ( 'NONE',  ( -4.275831445896958607E-31, -1.000000000000000000, -1.224646799147353207E-16 ) ) ;
#171 = AXIS2_PLACEMENT_3D ( 'NONE', #97, #12, #184 ) ;
#172 = CARTESIAN_POINT ( 'NONE',  ( -5.344708697691965743E-31, 1.874671454257931115E-32, -1.530785411404455918E-16 ) ) ;
#173 = EDGE_LOOP ( 'NONE', ( #16 ) ) ;
#174 = ORIENTED_EDGE ( 'NONE', *, *, #24, .F. ) ;
#175 = AXIS2_PLACEMENT_3D ( 'NONE', #201, #25, #46 ) ;
#176 = AXIS2_PLACEMENT_3D ( 'NONE', #101, #185, #127 ) ;
#177 = PERSON_AND_ORGANIZATION_ROLE ( 'design_supplier' ) ;
#178 = CC_DESIGN_DATE_AND_TIME_ASSIGNMENT ( #81, #109, ( #38 ) ) ;
#179 = ORGANIZATION ( 'UNSPECIFIED', 'UNSPECIFIED', '' ) ;
#180 = EDGE_CURVE ( 'NONE', #147, #147, #118, .T. ) ;
#181 = PERSON_AND_ORGANIZATION ( #151, #179 ) ;
#182 = PERSON_AND_ORGANIZATION ( #151, #179 ) ;
#183 = PERSON_AND_ORGANIZATION_ROLE ( 'creator' ) ;
#184 = DIRECTION ( 'NONE',  ( -4.275831445896958607E-31, -1.000000000000000000, -1.224646799147353207E-16 ) ) ;
#185 = DIRECTION ( 'NONE',  ( -3.491481338843133355E-15, 1.224646799147353207E-16, -1.000000000000000000 ) ) ;
#186 = EDGE_LOOP ( 'NONE', ( #126 ) ) ;
#187 = APPROVAL_PERSON_ORGANIZATION ( #149, #133, #74 ) ;
#188 = ORIENTED_EDGE ( 'NONE', *, *, #78, .F. ) ;
#189 = EDGE_LOOP ( 'NONE', ( #128 ) ) ;
#190 = ADVANCED_FACE ( 'NONE', ( #120, #29 ), #150, .T. ) ;
#191 = AXIS2_PLACEMENT_3D ( 'NONE', #143, #112, #170 ) ;
#192 = CC_DESIGN_SECURITY_CLASSIFICATION ( #38, ( #77 ) ) ;
#193 = VERTEX_POINT ( 'NONE', #164 ) ;
#194 = ADVANCED_FACE ( 'NONE', ( #80 ), #200, .F. ) ;
#195 = DATE_TIME_ROLE ( 'creation_date' ) ;
#196 =( LENGTH_UNIT ( ) NAMED_UNIT ( * ) SI_UNIT ( .MILLI., .METRE. ) );
#197 = PERSON_AND_ORGANIZATION_ROLE ( 'classification_officer' ) ;
#198 = AXIS2_PLACEMENT_3D ( 'NONE', #30, #139, #88 ) ;
#199 = APPROVAL_ROLE ( '' ) ;
#200 = PLANE ( 'NONE',  #171 ) ;
#201 = CARTESIAN_POINT ( 'NONE',  ( 3.491481338843133355E-14, -1.224646799147353256E-15, 10.00000000000000000 ) ) ;
#202 = EDGE_LOOP ( 'NONE', ( #56 ) ) ;
#203 = CARTESIAN_POINT ( 'NONE',  ( 1.326762908760390423E-13, -4.653657836759941941E-15, 38.00000000000000000 ) ) ;
ENDSEC;
END-ISO-10303-21;
