ISO-10303-21;
HEADER;
FILE_DESCRIPTION (( 'STEP AP203' ),
    '1' );
FILE_NAME ('372584.step',
    '2021-12-08T08:40:14',
    ( '' ),
    ( '' ),
    'SwSTEP 2.0',
    'SolidWorks 2019',
    '' );
FILE_SCHEMA (( 'CONFIG_CONTROL_DESIGN' ));
ENDSEC;

DATA;
#1 = APPROVAL_ROLE ( '' ) ;
#2 = CIRCLE ( 'NONE', #200, 1.499999999999995559 ) ;
#3 = APPLICATION_PROTOCOL_DEFINITION ( 'international standard', 'config_control_design', 1994, #35 ) ;
#4 = AXIS2_PLACEMENT_3D ( 'NONE', #101, #198, #44 ) ;
#5 = CARTESIAN_POINT ( 'NONE',  ( 0.0000000000000000000, 0.0000000000000000000, 0.0000000000000000000 ) ) ;
#6 = PERSON ( 'UNSPECIFIED', 'UNSPECIFIED', 'UNSPECIFIED', ('UNSPECIFIED'), ('UNSPECIFIED'), ('UNSPECIFIED') ) ;
#7 = DIRECTION ( 'NONE',  ( -4.275831445896958607E-31, -1.000000000000000000, -1.224646799147353207E-16 ) ) ;
#8 = DIRECTION ( 'NONE',  ( -4.275831445896958607E-31, -1.000000000000000000, -1.224646799147353207E-16 ) ) ;
#9 = CYLINDRICAL_SURFACE ( 'NONE', #128, 1.499999999999996225 ) ;
#10 = CALENDAR_DATE ( 2021, 8, 12 ) ;
#11 = APPROVAL_PERSON_ORGANIZATION ( #32, #119, #1 ) ;
#12 = ADVANCED_FACE ( 'NONE', ( #152, #157 ), #9, .T. ) ;
#13 = VERTEX_POINT ( 'NONE', #48 ) ;
#14 = LOCAL_TIME ( 9, 40, 13.00000000000000000, #91 ) ;
#15 = COORDINATED_UNIVERSAL_TIME_OFFSET ( 1, 0, .AHEAD. ) ;
#16 = MECHANICAL_CONTEXT ( 'NONE', #124, 'mechanical' ) ;
#17 = APPROVAL_STATUS ( 'not_yet_approved' ) ;
#18 =( LENGTH_UNIT ( ) NAMED_UNIT ( * ) SI_UNIT ( .MILLI., .METRE. ) );
#19 = LOCAL_TIME ( 9, 40, 13.00000000000000000, #140 ) ;
#20 = COORDINATED_UNIVERSAL_TIME_OFFSET ( 1, 0, .AHEAD. ) ;
#21 = ORIENTED_EDGE ( 'NONE', *, *, #93, .F. ) ;
#22 = DIRECTION ( 'NONE',  ( 4.275831445896958607E-31, 1.000000000000000000, 1.224646799147353207E-16 ) ) ;
#23 = DIRECTION ( 'NONE',  ( -3.491481338843133355E-15, 1.224646799147353207E-16, -1.000000000000000000 ) ) ;
#24 =( GEOMETRIC_REPRESENTATION_CONTEXT ( 3 ) GLOBAL_UNCERTAINTY_ASSIGNED_CONTEXT ( ( #83 ) ) GLOBAL_UNIT_ASSIGNED_CONTEXT ( ( #18, #203, #159 ) ) REPRESENTATION_CONTEXT ( 'NONE', 'WORKASPACE' ) );
#25 = ORIENTED_EDGE ( 'NONE', *, *, #196, .F. ) ;
#26 = ORIENTED_EDGE ( 'NONE', *, *, #162, .F. ) ;
#27 = DATE_TIME_ROLE ( 'classification_date' ) ;
#28 = PLANE ( 'NONE',  #168 ) ;
#29 = AXIS2_PLACEMENT_3D ( 'NONE', #60, #120, #102 ) ;
#30 = PERSON_AND_ORGANIZATION_ROLE ( 'classification_officer' ) ;
#31 = PERSON_AND_ORGANIZATION ( #6, #100 ) ;
#32 = PERSON_AND_ORGANIZATION ( #6, #100 ) ;
#33 = PERSON_AND_ORGANIZATION_ROLE ( 'creator' ) ;
#34 = DIRECTION ( 'NONE',  ( 0.0000000000000000000, 0.0000000000000000000, 1.000000000000000000 ) ) ;
#35 = APPLICATION_CONTEXT ( 'configuration controlled 3d designs of mechanical parts and assemblies' ) ;
#36 = VERTEX_POINT ( 'NONE', #116 ) ;
#37 = ORIENTED_EDGE ( 'NONE', *, *, #78, .F. ) ;
#38 = CC_DESIGN_APPROVAL ( #105, ( #191 ) ) ;
#39 = DIRECTION ( 'NONE',  ( 4.275831445896958607E-31, 1.000000000000000000, 1.224646799147353207E-16 ) ) ;
#40 = ADVANCED_FACE ( 'NONE', ( #113 ), #67, .F. ) ;
#41 = ORIENTED_EDGE ( 'NONE', *, *, #194, .T. ) ;
#42 = DIRECTION ( 'NONE',  ( -3.491481338843133355E-15, 1.224646799147353207E-16, -1.000000000000000000 ) ) ;
#43 = CARTESIAN_POINT ( 'NONE',  ( 0.0000000000000000000, 0.0000000000000000000, 0.0000000000000000000 ) ) ;
#44 = DIRECTION ( 'NONE',  ( -4.275831445896958607E-31, -1.000000000000000000, -1.224646799147353207E-16 ) ) ;
#45 = DATE_AND_TIME ( #10, #19 ) ;
#46 = DIRECTION ( 'NONE',  ( -3.491481338843133355E-15, 1.224646799147353207E-16, -1.000000000000000000 ) ) ;
#47 = DATE_AND_TIME ( #142, #151 ) ;
#48 = CARTESIAN_POINT ( 'NONE',  ( 3.491481338843133355E-14, 1.499999999999994671, 10.00000000000000000 ) ) ;
#49 = DATE_AND_TIME ( #129, #114 ) ;
#50 = CC_DESIGN_DATE_AND_TIME_ASSIGNMENT ( #47, #27, ( #191 ) ) ;
#51 = CARTESIAN_POINT ( 'NONE',  ( 1.047444401652940007E-13, 1.199999999999992628, 30.00000000000000000 ) ) ;
#52 = EDGE_LOOP ( 'NONE', ( #164 ) ) ;
#53 = AXIS2_PLACEMENT_3D ( 'NONE', #98, #23, #117 ) ;
#54 = ORIENTED_EDGE ( 'NONE', *, *, #78, .T. ) ;
#55 = DIRECTION ( 'NONE',  ( -3.491481338843133355E-15, 1.224646799147353207E-16, -1.000000000000000000 ) ) ;
#56 = ADVANCED_FACE ( 'NONE', ( #97, #167 ), #166, .T. ) ;
#57 = PLANE ( 'NONE',  #202 ) ;
#58 = CARTESIAN_POINT ( 'NONE',  ( 1.036969957636410417E-13, 1.499999999999992673, 29.69999999999999574 ) ) ;
#59 = CLOSED_SHELL ( 'NONE', ( #134, #12, #127, #40 ) ) ;
#60 = CARTESIAN_POINT ( 'NONE',  ( 1.047444401652940007E-13, -3.673940397442059178E-15, 30.00000000000000000 ) ) ;
#61 = SHAPE_DEFINITION_REPRESENTATION ( #115, #131 ) ;
#62 = CC_DESIGN_PERSON_AND_ORGANIZATION_ASSIGNMENT ( #31, #145, ( #172 ) ) ;
#63 = CARTESIAN_POINT ( 'NONE',  ( 1.069133141987377633E-31, 1.499999999999995559, 3.062119021210705312E-17 ) ) ;
#64 = DATE_AND_TIME ( #149, #144 ) ;
#65 = PERSON_AND_ORGANIZATION ( #6, #100 ) ;
#66 = APPROVAL_ROLE ( '' ) ;
#67 = PLANE ( 'NONE',  #186 ) ;
#68 = ORIENTED_EDGE ( 'NONE', *, *, #196, .T. ) ;
#69 = FACE_OUTER_BOUND ( 'NONE', #135, .T. ) ;
#70 = EDGE_LOOP ( 'NONE', ( #21 ) ) ;
#71 = CARTESIAN_POINT ( 'NONE',  ( 3.491481338843133355E-14, -1.224646799147353256E-15, 10.00000000000000000 ) ) ;
#72 = DIRECTION ( 'NONE',  ( 4.275831445896958607E-31, 1.000000000000000000, 1.224646799147353207E-16 ) ) ;
#73 = CC_DESIGN_APPROVAL ( #119, ( #132 ) ) ;
#74 = APPROVAL_STATUS ( 'not_yet_approved' ) ;
#75 = DIRECTION ( 'NONE',  ( -3.491481338843133355E-15, 1.224646799147353207E-16, -1.000000000000000000 ) ) ;
#76 = CARTESIAN_POINT ( 'NONE',  ( 0.0000000000000000000, 0.0000000000000000000, 0.0000000000000000000 ) ) ;
#77 = DIRECTION ( 'NONE',  ( 1.000000000000000000, 0.0000000000000000000, 0.0000000000000000000 ) ) ;
#78 = EDGE_CURVE ( 'NONE', #143, #143, #2, .T. ) ;
#79 = AXIS2_PLACEMENT_3D ( 'NONE', #71, #46, #104 ) ;
#80 = ORIENTED_EDGE ( 'NONE', *, *, #93, .T. ) ;
#81 = DIRECTION ( 'NONE',  ( -3.491481338843133355E-15, 1.224646799147353207E-16, -1.000000000000000000 ) ) ;
#82 = CC_DESIGN_PERSON_AND_ORGANIZATION_ASSIGNMENT ( #90, #174, ( #160 ) ) ;
#83 = UNCERTAINTY_MEASURE_WITH_UNIT (LENGTH_MEASURE( 1.000000000000000082E-05 ), #18, 'distance_accuracy_value', 'NONE');
#84 = FACE_OUTER_BOUND ( 'NONE', #181, .T. ) ;
#85 = CIRCLE ( 'NONE', #53, 1.199999999999996403 ) ;
#86 = CARTESIAN_POINT ( 'NONE',  ( 1.047444401652940007E-13, 8.998558695971064908E-33, 30.00000000000000000 ) ) ;
#87 = EDGE_LOOP ( 'NONE', ( #80 ) ) ;
#88 = CC_DESIGN_DATE_AND_TIME_ASSIGNMENT ( #163, #107, ( #160 ) ) ;
#89 = APPROVAL_PERSON_ORGANIZATION ( #65, #148, #66 ) ;
#90 = PERSON_AND_ORGANIZATION ( #6, #100 ) ;
#91 = COORDINATED_UNIVERSAL_TIME_OFFSET ( 1, 0, .AHEAD. ) ;
#92 = PERSON_AND_ORGANIZATION ( #6, #100 ) ;
#93 = EDGE_CURVE ( 'NONE', #188, #188, #85, .T. ) ;
#94 = CLOSED_SHELL ( 'NONE', ( #122, #56, #103 ) ) ;
#95 = APPROVAL_DATE_TIME ( #64, #148 ) ;
#96 = ORIENTED_EDGE ( 'NONE', *, *, #194, .F. ) ;
#97 = FACE_OUTER_BOUND ( 'NONE', #184, .T. ) ;
#98 = CARTESIAN_POINT ( 'NONE',  ( 1.047444401652940007E-13, -3.673940397442059178E-15, 30.00000000000000000 ) ) ;
#99 = CARTESIAN_POINT ( 'NONE',  ( 3.491481338843133355E-14, 1.124819836996388279E-32, 10.00000000000000000 ) ) ;
#100 = ORGANIZATION ( 'UNSPECIFIED', 'UNSPECIFIED', '' ) ;
#101 = CARTESIAN_POINT ( 'NONE',  ( -2.672307013429020724E-31, 9.373191240996941603E-33, -7.653791482999768973E-17 ) ) ;
#102 = DIRECTION ( 'NONE',  ( 0.0000000000000000000, 1.000000000000000000, 0.0000000000000000000 ) ) ;
#103 = ADVANCED_FACE ( 'NONE', ( #84 ), #57, .T. ) ;
#104 = DIRECTION ( 'NONE',  ( 0.0000000000000000000, 1.000000000000000000, 0.0000000000000000000 ) ) ;
#105 = APPROVAL ( #74, 'UNSPECIFIED' ) ;
#106 = MANIFOLD_SOLID_BREP ( 'Corps-Déplacer/Copier1[1]', #59 ) ;
#107 = DATE_TIME_ROLE ( 'creation_date' ) ;
#108 = CARTESIAN_POINT ( 'NONE',  ( 1.036969957636410417E-13, -3.637200993467639107E-15, 29.69999999999999574 ) ) ;
#109 = MANIFOLD_SOLID_BREP ( 'Corps-Déplacer/Copier1[2]', #94 ) ;
#110 = APPROVAL_DATE_TIME ( #49, #119 ) ;
#111 = CIRCLE ( 'NONE', #79, 1.499999999999996003 ) ;
#112 = EDGE_LOOP ( 'NONE', ( #41 ) ) ;
#113 = FACE_OUTER_BOUND ( 'NONE', #70, .T. ) ;
#114 = LOCAL_TIME ( 9, 40, 13.00000000000000000, #20 ) ;
#115 = PRODUCT_DEFINITION_SHAPE ( 'NONE', 'NONE',  #160 ) ;
#116 = CARTESIAN_POINT ( 'NONE',  ( 3.491481338843133355E-14, 1.499999999999994671, 10.00000000000000000 ) ) ;
#117 = DIRECTION ( 'NONE',  ( 0.0000000000000000000, 1.000000000000000000, 0.0000000000000000000 ) ) ;
#118 = AXIS2_PLACEMENT_3D ( 'NONE', #108, #146, #175 ) ;
#119 = APPROVAL ( #17, 'UNSPECIFIED' ) ;
#120 = DIRECTION ( 'NONE',  ( -3.491481338843133355E-15, 1.224646799147353207E-16, -1.000000000000000000 ) ) ;
#121 = FACE_OUTER_BOUND ( 'NONE', #133, .T. ) ;
#122 = ADVANCED_FACE ( 'NONE', ( #69 ), #137, .F. ) ;
#123 = CIRCLE ( 'NONE', #118, 1.499999999999996447 ) ;
#124 = APPLICATION_CONTEXT ( 'configuration controlled 3d designs of mechanical parts and assemblies' ) ;
#125 = PERSON_AND_ORGANIZATION ( #6, #100 ) ;
#126 = CARTESIAN_POINT ( 'NONE',  ( 3.491481338843133355E-14, -1.224646799147353256E-15, 10.00000000000000000 ) ) ;
#127 = ADVANCED_FACE ( 'NONE', ( #185, #169 ), #193, .T. ) ;
#128 = AXIS2_PLACEMENT_3D ( 'NONE', #5, #42, #72 ) ;
#129 = CALENDAR_DATE ( 2021, 8, 12 ) ;
#130 = APPROVAL_STATUS ( 'not_yet_approved' ) ;
#131 = ADVANCED_BREP_SHAPE_REPRESENTATION ( '372584', ( #106, #109, #197 ), #24 ) ;
#132 = PRODUCT_DEFINITION_FORMATION_WITH_SPECIFIED_SOURCE ( 'ANY', '', #172, .NOT_KNOWN. ) ;
#133 = EDGE_LOOP ( 'NONE', ( #68 ) ) ;
#134 = ADVANCED_FACE ( 'NONE', ( #121 ), #28, .F. ) ;
#135 = EDGE_LOOP ( 'NONE', ( #54 ) ) ;
#136 = AXIS2_PLACEMENT_3D ( 'NONE', #126, #75, #190 ) ;
#137 = PLANE ( 'NONE',  #4 ) ;
#138 = VERTEX_POINT ( 'NONE', #58 ) ;
#139 = EDGE_LOOP ( 'NONE', ( #25 ) ) ;
#140 = COORDINATED_UNIVERSAL_TIME_OFFSET ( 1, 0, .AHEAD. ) ;
#141 = PRODUCT_RELATED_PRODUCT_CATEGORY ( 'detail', '', ( #172 ) ) ;
#142 = CALENDAR_DATE ( 2021, 8, 12 ) ;
#143 = VERTEX_POINT ( 'NONE', #63 ) ;
#144 = LOCAL_TIME ( 9, 40, 13.00000000000000000, #161 ) ;
#145 = PERSON_AND_ORGANIZATION_ROLE ( 'design_owner' ) ;
#146 = DIRECTION ( 'NONE',  ( -3.491481338843133355E-15, 1.224646799147353207E-16, -1.000000000000000000 ) ) ;
#147 = APPROVAL_ROLE ( '' ) ;
#148 = APPROVAL ( #130, 'UNSPECIFIED' ) ;
#149 = CALENDAR_DATE ( 2021, 8, 12 ) ;
#150 = CC_DESIGN_PERSON_AND_ORGANIZATION_ASSIGNMENT ( #92, #192, ( #132 ) ) ;
#151 = LOCAL_TIME ( 9, 40, 13.00000000000000000, #15 ) ;
#152 = FACE_OUTER_BOUND ( 'NONE', #139, .T. ) ;
#153 = DIRECTION ( 'NONE',  ( 4.275831445896958607E-31, 1.000000000000000000, 1.224646799147353207E-16 ) ) ;
#154 = DIRECTION ( 'NONE',  ( 3.491481338843133355E-15, -1.224646799147353207E-16, 1.000000000000000000 ) ) ;
#155 = DIRECTION ( 'NONE',  ( -3.491481338843133355E-15, 1.224646799147353207E-16, -1.000000000000000000 ) ) ;
#156 = DIRECTION ( 'NONE',  ( 3.491481338843133355E-15, -1.224646799147353207E-16, 1.000000000000000000 ) ) ;
#157 = FACE_OUTER_BOUND ( 'NONE', #112, .T. ) ;
#158 = CC_DESIGN_SECURITY_CLASSIFICATION ( #191, ( #132 ) ) ;
#159 =( NAMED_UNIT ( * ) SI_UNIT ( $, .STERADIAN. ) SOLID_ANGLE_UNIT ( ) );
#160 = PRODUCT_DEFINITION ( 'UNKNOWN', '', #132, #199 ) ;
#161 = COORDINATED_UNIVERSAL_TIME_OFFSET ( 1, 0, .AHEAD. ) ;
#162 = EDGE_CURVE ( 'NONE', #36, #36, #111, .T. ) ;
#163 = DATE_AND_TIME ( #189, #14 ) ;
#164 = ORIENTED_EDGE ( 'NONE', *, *, #162, .T. ) ;
#165 = APPROVAL_PERSON_ORGANIZATION ( #187, #105, #147 ) ;
#166 = CYLINDRICAL_SURFACE ( 'NONE', #179, 1.499999999999995781 ) ;
#167 = FACE_OUTER_BOUND ( 'NONE', #52, .T. ) ;
#168 = AXIS2_PLACEMENT_3D ( 'NONE', #99, #156, #8 ) ;
#169 = FACE_BOUND ( 'NONE', #87, .T. ) ;
#170 = CIRCLE ( 'NONE', #136, 1.499999999999996003 ) ;
#171 = APPLICATION_PROTOCOL_DEFINITION ( 'international standard', 'config_control_design', 1994, #124 ) ;
#172 = PRODUCT ( '372584', '372584', '', ( #16 ) ) ;
#173 = CC_DESIGN_APPROVAL ( #148, ( #160 ) ) ;
#174 = PERSON_AND_ORGANIZATION_ROLE ( 'creator' ) ;
#175 = DIRECTION ( 'NONE',  ( 0.0000000000000000000, 1.000000000000000000, 0.0000000000000000000 ) ) ;
#176 = PERSON_AND_ORGANIZATION ( #6, #100 ) ;
#177 = CC_DESIGN_PERSON_AND_ORGANIZATION_ASSIGNMENT ( #125, #30, ( #191 ) ) ;
#178 = SECURITY_CLASSIFICATION_LEVEL ( 'unclassified' ) ;
#179 = AXIS2_PLACEMENT_3D ( 'NONE', #43, #155, #22 ) ;
#180 = EDGE_LOOP ( 'NONE', ( #96 ) ) ;
#181 = EDGE_LOOP ( 'NONE', ( #26 ) ) ;
#182 = CC_DESIGN_PERSON_AND_ORGANIZATION_ASSIGNMENT ( #176, #33, ( #132 ) ) ;
#183 = CARTESIAN_POINT ( 'NONE',  ( 3.491481338843133355E-14, 1.124819836996388279E-32, 10.00000000000000000 ) ) ;
#184 = EDGE_LOOP ( 'NONE', ( #37 ) ) ;
#185 = FACE_OUTER_BOUND ( 'NONE', #180, .T. ) ;
#186 = AXIS2_PLACEMENT_3D ( 'NONE', #86, #55, #39 ) ;
#187 = PERSON_AND_ORGANIZATION ( #6, #100 ) ;
#188 = VERTEX_POINT ( 'NONE', #51 ) ;
#189 = CALENDAR_DATE ( 2021, 8, 12 ) ;
#190 = DIRECTION ( 'NONE',  ( 0.0000000000000000000, 1.000000000000000000, 0.0000000000000000000 ) ) ;
#191 = SECURITY_CLASSIFICATION ( '', '', #178 ) ;
#192 = PERSON_AND_ORGANIZATION_ROLE ( 'design_supplier' ) ;
#193 = CONICAL_SURFACE ( 'NONE', #29, 1.199999999999996403, 0.7853981633974453924 ) ;
#194 = EDGE_CURVE ( 'NONE', #138, #138, #123, .T. ) ;
#195 = CARTESIAN_POINT ( 'NONE',  ( -5.344614026858041447E-31, 1.874638248199388321E-32, -1.530758296599953795E-16 ) ) ;
#196 = EDGE_CURVE ( 'NONE', #13, #13, #170, .T. ) ;
#197 = AXIS2_PLACEMENT_3D ( 'NONE', #76, #34, #77 ) ;
#198 = DIRECTION ( 'NONE',  ( 3.491481338843133355E-15, -1.224646799147353207E-16, 1.000000000000000000 ) ) ;
#199 = DESIGN_CONTEXT ( 'detailed design', #35, 'design' ) ;
#200 = AXIS2_PLACEMENT_3D ( 'NONE', #195, #81, #153 ) ;
#201 = APPROVAL_DATE_TIME ( #45, #105 ) ;
#202 = AXIS2_PLACEMENT_3D ( 'NONE', #183, #154, #7 ) ;
#203 =( NAMED_UNIT ( * ) PLANE_ANGLE_UNIT ( ) SI_UNIT ( $, .RADIAN. ) );
ENDSEC;
END-ISO-10303-21;
