ISO-10303-21;
HEADER;
FILE_DESCRIPTION (( 'STEP AP203' ),
    '1' );
FILE_NAME ('372583.step',
    '2021-12-08T08:40:13',
    ( '' ),
    ( '' ),
    'SwSTEP 2.0',
    'SolidWorks 2019',
    '' );
FILE_SCHEMA (( 'CONFIG_CONTROL_DESIGN' ));
ENDSEC;

DATA;
#1 = PLANE ( 'NONE',  #6 ) ;
#2 = EDGE_CURVE ( 'NONE', #178, #178, #151, .T. ) ;
#3 = ADVANCED_BREP_SHAPE_REPRESENTATION ( '372583', ( #90, #26, #65 ), #191 ) ;
#4 = DIRECTION ( 'NONE',  ( 4.275831445896959482E-31, 1.000000000000000000, 1.224646799147353207E-16 ) ) ;
#5 = CYLINDRICAL_SURFACE ( 'NONE', #86, 1.499999999999995781 ) ;
#6 = AXIS2_PLACEMENT_3D ( 'NONE', #112, #67, #152 ) ;
#7 = PLANE ( 'NONE',  #36 ) ;
#8 = DATE_AND_TIME ( #153, #203 ) ;
#9 = DATE_AND_TIME ( #43, #111 ) ;
#10 = CC_DESIGN_SECURITY_CLASSIFICATION ( #107, ( #25 ) ) ;
#11 = CALENDAR_DATE ( 2021, 8, 12 ) ;
#12 = COORDINATED_UNIVERSAL_TIME_OFFSET ( 1, 0, .AHEAD. ) ;
#13 = PERSON_AND_ORGANIZATION_ROLE ( 'design_owner' ) ;
#14 = APPROVAL_PERSON_ORGANIZATION ( #60, #50, #48 ) ;
#15 = CARTESIAN_POINT ( 'NONE',  ( 2.793185071074506684E-14, -9.797174393178825657E-16, 8.000000000000000000 ) ) ;
#16 = CC_DESIGN_PERSON_AND_ORGANIZATION_ASSIGNMENT ( #49, #13, ( #45 ) ) ;
#17 = AXIS2_PLACEMENT_3D ( 'NONE', #87, #133, #132 ) ;
#18 = EDGE_LOOP ( 'NONE', ( #63 ) ) ;
#19 = CARTESIAN_POINT ( 'NONE',  ( 2.793185071074506684E-14, 1.124819836996388690E-32, 8.000000000000000000 ) ) ;
#20 =( NAMED_UNIT ( * ) PLANE_ANGLE_UNIT ( ) SI_UNIT ( $, .RADIAN. ) );
#21 = FACE_OUTER_BOUND ( 'NONE', #142, .T. ) ;
#22 = ADVANCED_FACE ( 'NONE', ( #96 ), #158, .F. ) ;
#23 = FACE_OUTER_BOUND ( 'NONE', #51, .T. ) ;
#24 = CARTESIAN_POINT ( 'NONE',  ( 2.094888803305880013E-13, 8.998558695971036171E-33, 60.00000000000000000 ) ) ;
#25 = PRODUCT_DEFINITION_FORMATION_WITH_SPECIFIED_SOURCE ( 'ANY', '', #45, .NOT_KNOWN. ) ;
#26 = MANIFOLD_SOLID_BREP ( 'Corps-Déplacer/Copier1[2]', #177 ) ;
#27 = APPLICATION_CONTEXT ( 'configuration controlled 3d designs of mechanical parts and assemblies' ) ;
#28 = PERSON_AND_ORGANIZATION_ROLE ( 'creator' ) ;
#29 = APPLICATION_PROTOCOL_DEFINITION ( 'international standard', 'config_control_design', 1994, #27 ) ;
#30 = PERSON_AND_ORGANIZATION ( #168, #95 ) ;
#31 = LOCAL_TIME ( 9, 40, 13.00000000000000000, #79 ) ;
#32 = APPLICATION_CONTEXT ( 'configuration controlled 3d designs of mechanical parts and assemblies' ) ;
#33 = ORIENTED_EDGE ( 'NONE', *, *, #193, .T. ) ;
#34 = EDGE_LOOP ( 'NONE', ( #125 ) ) ;
#35 = AXIS2_PLACEMENT_3D ( 'NONE', #19, #54, #131 ) ;
#36 = AXIS2_PLACEMENT_3D ( 'NONE', #24, #188, #175 ) ;
#37 = DIRECTION ( 'NONE',  ( -3.491481338843133355E-15, 1.224646799147353207E-16, -1.000000000000000000 ) ) ;
#38 = CARTESIAN_POINT ( 'NONE',  ( 1.069153641956952266E-31, 1.499999999999995559, 3.062177735457137752E-17 ) ) ;
#39 = FACE_OUTER_BOUND ( 'NONE', #129, .T. ) ;
#40 =( NAMED_UNIT ( * ) SI_UNIT ( $, .STERADIAN. ) SOLID_ANGLE_UNIT ( ) );
#41 = PLANE ( 'NONE',  #172 ) ;
#42 = CARTESIAN_POINT ( 'NONE',  ( 2.793185071074506684E-14, 1.499999999999995115, 8.000000000000000000 ) ) ;
#43 = CALENDAR_DATE ( 2021, 8, 12 ) ;
#44 = AXIS2_PLACEMENT_3D ( 'NONE', #163, #190, #115 ) ;
#45 = PRODUCT ( '372583', '372583', '', ( #89 ) ) ;
#46 = COORDINATED_UNIVERSAL_TIME_OFFSET ( 1, 0, .AHEAD. ) ;
#47 = ADVANCED_FACE ( 'NONE', ( #23, #73 ), #123, .T. ) ;
#48 = APPROVAL_ROLE ( '' ) ;
#49 = PERSON_AND_ORGANIZATION ( #168, #95 ) ;
#50 = APPROVAL ( #80, 'UNSPECIFIED' ) ;
#51 = EDGE_LOOP ( 'NONE', ( #141 ) ) ;
#52 = CIRCLE ( 'NONE', #104, 1.499999999999999778 ) ;
#53 = APPROVAL ( #91, 'UNSPECIFIED' ) ;
#54 = DIRECTION ( 'NONE',  ( 3.491481338843133355E-15, -1.224646799147353207E-16, 1.000000000000000000 ) ) ;
#55 = FACE_OUTER_BOUND ( 'NONE', #128, .T. ) ;
#56 = CC_DESIGN_DATE_AND_TIME_ASSIGNMENT ( #8, #75, ( #107 ) ) ;
#57 = DIRECTION ( 'NONE',  ( -3.491481338843133355E-15, 1.224646799147353207E-16, -1.000000000000000000 ) ) ;
#58 = CARTESIAN_POINT ( 'NONE',  ( 2.094888803305880013E-13, -7.347880794884118356E-15, 60.00000000000000000 ) ) ;
#59 = VERTEX_POINT ( 'NONE', #38 ) ;
#60 = PERSON_AND_ORGANIZATION ( #168, #95 ) ;
#61 = PERSON_AND_ORGANIZATION ( #168, #95 ) ;
#62 = LOCAL_TIME ( 9, 40, 13.00000000000000000, #181 ) ;
#63 = ORIENTED_EDGE ( 'NONE', *, *, #159, .F. ) ;
#64 = CC_DESIGN_PERSON_AND_ORGANIZATION_ASSIGNMENT ( #88, #185, ( #107 ) ) ;
#65 = AXIS2_PLACEMENT_3D ( 'NONE', #167, #197, #120 ) ;
#66 = CC_DESIGN_APPROVAL ( #126, ( #107 ) ) ;
#67 = DIRECTION ( 'NONE',  ( 3.491481338843133355E-15, -1.224646799147353207E-16, 1.000000000000000000 ) ) ;
#68 = FACE_OUTER_BOUND ( 'NONE', #144, .T. ) ;
#69 = FACE_OUTER_BOUND ( 'NONE', #18, .T. ) ;
#70 = AXIS2_PLACEMENT_3D ( 'NONE', #58, #85, #97 ) ;
#71 = CYLINDRICAL_SURFACE ( 'NONE', #164, 1.499999999999997780 ) ;
#72 = UNCERTAINTY_MEASURE_WITH_UNIT (LENGTH_MEASURE( 1.000000000000000082E-05 ), #161, 'distance_accuracy_value', 'NONE');
#73 = FACE_BOUND ( 'NONE', #34, .T. ) ;
#74 = ADVANCED_FACE ( 'NONE', ( #39, #55 ), #5, .T. ) ;
#75 = DATE_TIME_ROLE ( 'classification_date' ) ;
#76 = CALENDAR_DATE ( 2021, 8, 12 ) ;
#77 = PERSON_AND_ORGANIZATION_ROLE ( 'creator' ) ;
#78 = EDGE_CURVE ( 'NONE', #160, #160, #52, .T. ) ;
#79 = COORDINATED_UNIVERSAL_TIME_OFFSET ( 1, 0, .AHEAD. ) ;
#80 = APPROVAL_STATUS ( 'not_yet_approved' ) ;
#81 = ORIENTED_EDGE ( 'NONE', *, *, #2, .T. ) ;
#82 = EDGE_LOOP ( 'NONE', ( #143 ) ) ;
#83 = DIRECTION ( 'NONE',  ( 0.0000000000000000000, 1.000000000000000000, 0.0000000000000000000 ) ) ;
#84 = DIRECTION ( 'NONE',  ( 3.491481338843133355E-15, -1.224646799147353207E-16, 1.000000000000000000 ) ) ;
#85 = DIRECTION ( 'NONE',  ( -3.491481338843133355E-15, 1.224646799147353207E-16, -1.000000000000000000 ) ) ;
#86 = AXIS2_PLACEMENT_3D ( 'NONE', #149, #57, #176 ) ;
#87 = CARTESIAN_POINT ( 'NONE',  ( -5.344593526888466595E-31, 1.874631057777992425E-32, -1.530752425175310612E-16 ) ) ;
#88 = PERSON_AND_ORGANIZATION ( #168, #95 ) ;
#89 = MECHANICAL_CONTEXT ( 'NONE', #32, 'mechanical' ) ;
#90 = MANIFOLD_SOLID_BREP ( 'Corps-Déplacer/Copier1[1]', #189 ) ;
#91 = APPROVAL_STATUS ( 'not_yet_approved' ) ;
#92 = CIRCLE ( 'NONE', #70, 1.200000000000000178 ) ;
#93 = ADVANCED_FACE ( 'NONE', ( #194 ), #1, .F. ) ;
#94 = ADVANCED_FACE ( 'NONE', ( #174, #68 ), #71, .T. ) ;
#95 = ORGANIZATION ( 'UNSPECIFIED', 'UNSPECIFIED', '' ) ;
#96 = FACE_OUTER_BOUND ( 'NONE', #170, .T. ) ;
#97 = DIRECTION ( 'NONE',  ( 0.0000000000000000000, 1.000000000000000000, 0.0000000000000000000 ) ) ;
#98 = CARTESIAN_POINT ( 'NONE',  ( 2.793185071074506684E-14, 1.499999999999995115, 8.000000000000000000 ) ) ;
#99 = PRODUCT_RELATED_PRODUCT_CATEGORY ( 'detail', '', ( #45 ) ) ;
#100 = DIRECTION ( 'NONE',  ( 0.0000000000000000000, 1.000000000000000000, 0.0000000000000000000 ) ) ;
#101 = CARTESIAN_POINT ( 'NONE',  ( 2.094888803305880013E-13, -7.347880794884118356E-15, 60.00000000000000000 ) ) ;
#102 = CC_DESIGN_PERSON_AND_ORGANIZATION_ASSIGNMENT ( #30, #28, ( #171 ) ) ;
#103 = DIRECTION ( 'NONE',  ( -3.491481338843133355E-15, 1.224646799147353207E-16, -1.000000000000000000 ) ) ;
#104 = AXIS2_PLACEMENT_3D ( 'NONE', #145, #136, #100 ) ;
#105 = PERSON_AND_ORGANIZATION ( #168, #95 ) ;
#106 = APPROVAL_DATE_TIME ( #183, #126 ) ;
#107 = SECURITY_CLASSIFICATION ( '', '', #108 ) ;
#108 = SECURITY_CLASSIFICATION_LEVEL ( 'unclassified' ) ;
#109 = ADVANCED_FACE ( 'NONE', ( #21 ), #41, .T. ) ;
#110 = ORIENTED_EDGE ( 'NONE', *, *, #78, .T. ) ;
#111 = LOCAL_TIME ( 9, 40, 13.00000000000000000, #156 ) ;
#112 = CARTESIAN_POINT ( 'NONE',  ( -2.672296763444233298E-31, 9.373155288889962127E-33, -7.653762125876553061E-17 ) ) ;
#113 = CARTESIAN_POINT ( 'NONE',  ( 2.793185071074506684E-14, 1.124819836996388690E-32, 8.000000000000000000 ) ) ;
#114 = DIRECTION ( 'NONE',  ( -4.275831445896958607E-31, -1.000000000000000000, -1.224646799147353207E-16 ) ) ;
#115 = DIRECTION ( 'NONE',  ( 0.0000000000000000000, 1.000000000000000000, 0.0000000000000000000 ) ) ;
#116 = DATE_TIME_ROLE ( 'creation_date' ) ;
#117 = APPROVAL_PERSON_ORGANIZATION ( #155, #126, #138 ) ;
#118 = CALENDAR_DATE ( 2021, 8, 12 ) ;
#119 = DESIGN_CONTEXT ( 'detailed design', #27, 'design' ) ;
#120 = DIRECTION ( 'NONE',  ( 1.000000000000000000, 0.0000000000000000000, 0.0000000000000000000 ) ) ;
#121 = PERSON_AND_ORGANIZATION_ROLE ( 'design_supplier' ) ;
#122 = AXIS2_PLACEMENT_3D ( 'NONE', #15, #37, #202 ) ;
#123 = CONICAL_SURFACE ( 'NONE', #187, 1.200000000000000178, 0.7853981633974450594 ) ;
#124 = APPROVAL_DATE_TIME ( #199, #53 ) ;
#125 = ORIENTED_EDGE ( 'NONE', *, *, #159, .T. ) ;
#126 = APPROVAL ( #184, 'UNSPECIFIED' ) ;
#127 = EDGE_LOOP ( 'NONE', ( #173 ) ) ;
#128 = EDGE_LOOP ( 'NONE', ( #81 ) ) ;
#129 = EDGE_LOOP ( 'NONE', ( #169 ) ) ;
#130 = CIRCLE ( 'NONE', #44, 1.499999999999996225 ) ;
#131 = DIRECTION ( 'NONE',  ( -4.275831445896958607E-31, -1.000000000000000000, -1.224646799147353207E-16 ) ) ;
#132 = DIRECTION ( 'NONE',  ( 4.275831445896958607E-31, 1.000000000000000000, 1.224646799147353207E-16 ) ) ;
#133 = DIRECTION ( 'NONE',  ( -3.491481338843133355E-15, 1.224646799147353207E-16, -1.000000000000000000 ) ) ;
#134 = CIRCLE ( 'NONE', #17, 1.499999999999995559 ) ;
#135 = CARTESIAN_POINT ( 'NONE',  ( 2.094888803305880013E-13, 1.199999999999992628, 60.00000000000000000 ) ) ;
#136 = DIRECTION ( 'NONE',  ( -3.491481338843133355E-15, 1.224646799147353207E-16, -1.000000000000000000 ) ) ;
#137 = ADVANCED_FACE ( 'NONE', ( #69 ), #7, .F. ) ;
#138 = APPROVAL_ROLE ( '' ) ;
#139 = APPROVAL_ROLE ( '' ) ;
#140 = APPROVAL_DATE_TIME ( #195, #50 ) ;
#141 = ORIENTED_EDGE ( 'NONE', *, *, #78, .F. ) ;
#142 = EDGE_LOOP ( 'NONE', ( #201 ) ) ;
#143 = ORIENTED_EDGE ( 'NONE', *, *, #193, .F. ) ;
#144 = EDGE_LOOP ( 'NONE', ( #110 ) ) ;
#145 = CARTESIAN_POINT ( 'NONE',  ( 2.084414359289350550E-13, -7.311141390909697496E-15, 59.69999999999999574 ) ) ;
#146 = CC_DESIGN_APPROVAL ( #53, ( #171 ) ) ;
#147 = CARTESIAN_POINT ( 'NONE',  ( 2.084414359289350550E-13, 1.499999999999992450, 59.69999999999999574 ) ) ;
#148 = EDGE_CURVE ( 'NONE', #59, #59, #134, .T. ) ;
#149 = CARTESIAN_POINT ( 'NONE',  ( 0.0000000000000000000, 0.0000000000000000000, 0.0000000000000000000 ) ) ;
#150 = VERTEX_POINT ( 'NONE', #135 ) ;
#151 = CIRCLE ( 'NONE', #122, 1.499999999999996225 ) ;
#152 = DIRECTION ( 'NONE',  ( -4.275831445896958607E-31, -1.000000000000000000, -1.224646799147353207E-16 ) ) ;
#153 = CALENDAR_DATE ( 2021, 8, 12 ) ;
#154 = PERSON_AND_ORGANIZATION ( #168, #95 ) ;
#155 = PERSON_AND_ORGANIZATION ( #168, #95 ) ;
#156 = COORDINATED_UNIVERSAL_TIME_OFFSET ( 1, 0, .AHEAD. ) ;
#157 = CC_DESIGN_APPROVAL ( #50, ( #25 ) ) ;
#158 = PLANE ( 'NONE',  #35 ) ;
#159 = EDGE_CURVE ( 'NONE', #150, #150, #92, .T. ) ;
#160 = VERTEX_POINT ( 'NONE', #147 ) ;
#161 =( LENGTH_UNIT ( ) NAMED_UNIT ( * ) SI_UNIT ( .MILLI., .METRE. ) );
#162 = DIRECTION ( 'NONE',  ( -3.491481338843133355E-15, 1.224646799147353207E-16, -1.000000000000000000 ) ) ;
#163 = CARTESIAN_POINT ( 'NONE',  ( 2.793185071074506684E-14, -9.797174393178825657E-16, 8.000000000000000000 ) ) ;
#164 = AXIS2_PLACEMENT_3D ( 'NONE', #192, #162, #4 ) ;
#165 = APPLICATION_PROTOCOL_DEFINITION ( 'international standard', 'config_control_design', 1994, #32 ) ;
#166 = CC_DESIGN_DATE_AND_TIME_ASSIGNMENT ( #9, #116, ( #171 ) ) ;
#167 = CARTESIAN_POINT ( 'NONE',  ( 0.0000000000000000000, 0.0000000000000000000, 0.0000000000000000000 ) ) ;
#168 = PERSON ( 'UNSPECIFIED', 'UNSPECIFIED', 'UNSPECIFIED', ('UNSPECIFIED'), ('UNSPECIFIED'), ('UNSPECIFIED') ) ;
#169 = ORIENTED_EDGE ( 'NONE', *, *, #148, .F. ) ;
#170 = EDGE_LOOP ( 'NONE', ( #33 ) ) ;
#171 = PRODUCT_DEFINITION ( 'UNKNOWN', '', #25, #119 ) ;
#172 = AXIS2_PLACEMENT_3D ( 'NONE', #113, #84, #114 ) ;
#173 = ORIENTED_EDGE ( 'NONE', *, *, #148, .T. ) ;
#174 = FACE_OUTER_BOUND ( 'NONE', #82, .T. ) ;
#175 = DIRECTION ( 'NONE',  ( 4.275831445896958607E-31, 1.000000000000000000, 1.224646799147353207E-16 ) ) ;
#176 = DIRECTION ( 'NONE',  ( 4.275831445896958607E-31, 1.000000000000000000, 1.224646799147353207E-16 ) ) ;
#177 = CLOSED_SHELL ( 'NONE', ( #93, #74, #109 ) ) ;
#178 = VERTEX_POINT ( 'NONE', #98 ) ;
#179 = VERTEX_POINT ( 'NONE', #42 ) ;
#180 = CC_DESIGN_PERSON_AND_ORGANIZATION_ASSIGNMENT ( #105, #121, ( #25 ) ) ;
#181 = COORDINATED_UNIVERSAL_TIME_OFFSET ( 1, 0, .AHEAD. ) ;
#182 = LOCAL_TIME ( 9, 40, 13.00000000000000000, #46 ) ;
#183 = DATE_AND_TIME ( #118, #31 ) ;
#184 = APPROVAL_STATUS ( 'not_yet_approved' ) ;
#185 = PERSON_AND_ORGANIZATION_ROLE ( 'classification_officer' ) ;
#186 = SHAPE_DEFINITION_REPRESENTATION ( #196, #3 ) ;
#187 = AXIS2_PLACEMENT_3D ( 'NONE', #101, #103, #83 ) ;
#188 = DIRECTION ( 'NONE',  ( -3.491481338843133355E-15, 1.224646799147353207E-16, -1.000000000000000000 ) ) ;
#189 = CLOSED_SHELL ( 'NONE', ( #22, #94, #47, #137 ) ) ;
#190 = DIRECTION ( 'NONE',  ( -3.491481338843133355E-15, 1.224646799147353207E-16, -1.000000000000000000 ) ) ;
#191 =( GEOMETRIC_REPRESENTATION_CONTEXT ( 3 ) GLOBAL_UNCERTAINTY_ASSIGNED_CONTEXT ( ( #72 ) ) GLOBAL_UNIT_ASSIGNED_CONTEXT ( ( #161, #20, #40 ) ) REPRESENTATION_CONTEXT ( 'NONE', 'WORKASPACE' ) );
#192 = CARTESIAN_POINT ( 'NONE',  ( 0.0000000000000000000, 0.0000000000000000000, 0.0000000000000000000 ) ) ;
#193 = EDGE_CURVE ( 'NONE', #179, #179, #130, .T. ) ;
#194 = FACE_OUTER_BOUND ( 'NONE', #127, .T. ) ;
#195 = DATE_AND_TIME ( #76, #182 ) ;
#196 = PRODUCT_DEFINITION_SHAPE ( 'NONE', 'NONE',  #171 ) ;
#197 = DIRECTION ( 'NONE',  ( 0.0000000000000000000, 0.0000000000000000000, 1.000000000000000000 ) ) ;
#198 = CC_DESIGN_PERSON_AND_ORGANIZATION_ASSIGNMENT ( #61, #77, ( #25 ) ) ;
#199 = DATE_AND_TIME ( #11, #62 ) ;
#200 = APPROVAL_PERSON_ORGANIZATION ( #154, #53, #139 ) ;
#201 = ORIENTED_EDGE ( 'NONE', *, *, #2, .F. ) ;
#202 = DIRECTION ( 'NONE',  ( 0.0000000000000000000, 1.000000000000000000, 0.0000000000000000000 ) ) ;
#203 = LOCAL_TIME ( 9, 40, 13.00000000000000000, #12 ) ;
ENDSEC;
END-ISO-10303-21;
