ISO-10303-21;
HEADER;
FILE_DESCRIPTION (( 'STEP AP203' ),
    '1' );
FILE_NAME ('372582.step',
    '2021-12-08T08:40:12',
    ( '' ),
    ( '' ),
    'SwSTEP 2.0',
    'SolidWorks 2019',
    '' );
FILE_SCHEMA (( 'CONFIG_CONTROL_DESIGN' ));
ENDSEC;

DATA;
#1 = CONICAL_SURFACE ( 'NONE', #84, 6.249999999999998224, 0.2617993877991501850 ) ;
#2 = SECURITY_CLASSIFICATION_LEVEL ( 'unclassified' ) ;
#3 = PERSON_AND_ORGANIZATION_ROLE ( 'creator' ) ;
#4 = DIRECTION ( 'NONE',  ( 0.0000000000000000000, -1.000000000000000000, 0.0000000000000000000 ) ) ;
#5 = DIRECTION ( 'NONE',  ( -4.275831445896958607E-31, -1.000000000000000000, -1.224646799147353207E-16 ) ) ;
#6 = AXIS2_PLACEMENT_3D ( 'NONE', #145, #97, #160 ) ;
#7 = AXIS2_PLACEMENT_3D ( 'NONE', #211, #111, #40 ) ;
#8 = ORIENTED_EDGE ( 'NONE', *, *, #76, .T. ) ;
#9 = DIRECTION ( 'NONE',  ( 0.0000000000000000000, 1.000000000000000000, 0.0000000000000000000 ) ) ;
#10 = EDGE_LOOP ( 'NONE', ( #176 ) ) ;
#11 = ADVANCED_FACE ( 'NONE', ( #26, #182 ), #1, .T. ) ;
#12 = PERSON_AND_ORGANIZATION_ROLE ( 'creator' ) ;
#13 = AXIS2_PLACEMENT_3D ( 'NONE', #214, #110, #54 ) ;
#14 = DIRECTION ( 'NONE',  ( 0.0000000000000000000, 0.0000000000000000000, 1.000000000000000000 ) ) ;
#15 = ADVANCED_FACE ( 'NONE', ( #139 ), #107, .F. ) ;
#16 =( NAMED_UNIT ( * ) PLANE_ANGLE_UNIT ( ) SI_UNIT ( $, .RADIAN. ) );
#17 = AXIS2_PLACEMENT_3D ( 'NONE', #96, #37, #9 ) ;
#18 = DATE_AND_TIME ( #21, #217 ) ;
#19 = PERSON_AND_ORGANIZATION_ROLE ( 'design_supplier' ) ;
#20 = AXIS2_PLACEMENT_3D ( 'NONE', #59, #143, #25 ) ;
#21 = CALENDAR_DATE ( 2021, 8, 12 ) ;
#22 = EDGE_LOOP ( 'NONE', ( #138 ) ) ;
#23 = EDGE_LOOP ( 'NONE', ( #8 ) ) ;
#24 = ORIENTED_EDGE ( 'NONE', *, *, #170, .F. ) ;
#25 = DIRECTION ( 'NONE',  ( -4.275831445896958607E-31, -1.000000000000000000, -1.224646799147353207E-16 ) ) ;
#26 = FACE_BOUND ( 'NONE', #89, .T. ) ;
#27 = APPLICATION_CONTEXT ( 'configuration controlled 3d designs of mechanical parts and assemblies' ) ;
#28 = DATE_AND_TIME ( #146, #104 ) ;
#29 = CYLINDRICAL_SURFACE ( 'NONE', #72, 1.499999999999999556 ) ;
#30 = VERTEX_POINT ( 'NONE', #132 ) ;
#31 = APPLICATION_PROTOCOL_DEFINITION ( 'international standard', 'config_control_design', 1994, #27 ) ;
#32 = APPROVAL_STATUS ( 'not_yet_approved' ) ;
#33 = CLOSED_SHELL ( 'NONE', ( #203, #105, #15 ) ) ;
#34 = CC_DESIGN_DATE_AND_TIME_ASSIGNMENT ( #218, #60, ( #61 ) ) ;
#35 = ORIENTED_EDGE ( 'NONE', *, *, #47, .T. ) ;
#36 = DIRECTION ( 'NONE',  ( 0.0000000000000000000, 1.000000000000000000, 0.0000000000000000000 ) ) ;
#37 = DIRECTION ( 'NONE',  ( -3.491481338843133355E-15, 1.224646799147353207E-16, -1.000000000000000000 ) ) ;
#38 = ADVANCED_FACE ( 'NONE', ( #215 ), #121, .F. ) ;
#39 = AXIS2_PLACEMENT_3D ( 'NONE', #41, #112, #36 ) ;
#40 = DIRECTION ( 'NONE',  ( 0.0000000000000000000, -1.000000000000000000, 0.0000000000000000000 ) ) ;
#41 = CARTESIAN_POINT ( 'NONE',  ( 2.094888803305880013E-13, -7.347880794884118356E-15, 60.00000000000000000 ) ) ;
#42 = DIRECTION ( 'NONE',  ( 0.0000000000000000000, -1.000000000000000000, 0.0000000000000000000 ) ) ;
#43 = AXIS2_PLACEMENT_3D ( 'NONE', #93, #144, #5 ) ;
#44 = AXIS2_PLACEMENT_3D ( 'NONE', #77, #46, #42 ) ;
#45 = MECHANICAL_CONTEXT ( 'NONE', #57, 'mechanical' ) ;
#46 = DIRECTION ( 'NONE',  ( 3.491481338843133355E-15, -1.276467311168695266E-16, 1.000000000000000000 ) ) ;
#47 = EDGE_CURVE ( 'NONE', #150, #150, #49, .T. ) ;
#48 = CALENDAR_DATE ( 2021, 8, 12 ) ;
#49 = CIRCLE ( 'NONE', #153, 1.249999999999998890 ) ;
#50 = EDGE_LOOP ( 'NONE', ( #24 ) ) ;
#51 =( GEOMETRIC_REPRESENTATION_CONTEXT ( 3 ) GLOBAL_UNCERTAINTY_ASSIGNED_CONTEXT ( ( #174 ) ) GLOBAL_UNIT_ASSIGNED_CONTEXT ( ( #101, #16, #185 ) ) REPRESENTATION_CONTEXT ( 'NONE', 'WORKASPACE' ) );
#52 = ORIENTED_EDGE ( 'NONE', *, *, #209, .T. ) ;
#53 = LOCAL_TIME ( 9, 40, 12.00000000000000000, #129 ) ;
#54 = DIRECTION ( 'NONE',  ( -4.456761796588770537E-31, -1.000000000000000000, -1.276467311168695019E-16 ) ) ;
#55 = PLANE ( 'NONE',  #168 ) ;
#56 = DIRECTION ( 'NONE',  ( 3.491481338843133355E-15, -1.276467311168695266E-16, 1.000000000000000000 ) ) ;
#57 = APPLICATION_CONTEXT ( 'configuration controlled 3d designs of mechanical parts and assemblies' ) ;
#58 = CC_DESIGN_APPROVAL ( #108, ( #142 ) ) ;
#59 = CARTESIAN_POINT ( 'NONE',  ( 2.793185071074506684E-14, 1.124819836996388964E-32, 8.000000000000000000 ) ) ;
#60 = DATE_TIME_ROLE ( 'creation_date' ) ;
#61 = PRODUCT_DEFINITION ( 'UNKNOWN', '', #158, #122 ) ;
#62 = APPROVAL_ROLE ( '' ) ;
#63 = CARTESIAN_POINT ( 'NONE',  ( 0.0000000000000000000, 0.0000000000000000000, 0.0000000000000000000 ) ) ;
#64 = APPROVAL_PERSON_ORGANIZATION ( #169, #197, #205 ) ;
#65 = EDGE_CURVE ( 'NONE', #223, #223, #67, .T. ) ;
#66 = VERTEX_POINT ( 'NONE', #166 ) ;
#67 = CIRCLE ( 'NONE', #7, 1.249999999999998890 ) ;
#68 = LOCAL_TIME ( 9, 40, 12.00000000000000000, #71 ) ;
#69 = ADVANCED_FACE ( 'NONE', ( #180 ), #195, .F. ) ;
#70 = DATE_AND_TIME ( #48, #181 ) ;
#71 = COORDINATED_UNIVERSAL_TIME_OFFSET ( 1, 0, .AHEAD. ) ;
#72 = AXIS2_PLACEMENT_3D ( 'NONE', #63, #133, #167 ) ;
#73 = PERSON_AND_ORGANIZATION_ROLE ( 'classification_officer' ) ;
#74 = DIRECTION ( 'NONE',  ( -4.275831445896958607E-31, -1.000000000000000000, -1.224646799147353207E-16 ) ) ;
#75 = DIRECTION ( 'NONE',  ( -4.456761796588770537E-31, -1.000000000000000000, -1.276467311168695266E-16 ) ) ;
#76 = EDGE_CURVE ( 'NONE', #30, #30, #90, .T. ) ;
#77 = CARTESIAN_POINT ( 'NONE',  ( 2.793185071074506684E-14, -1.021173848934956212E-15, 8.000000000000000000 ) ) ;
#78 = EDGE_LOOP ( 'NONE', ( #119 ) ) ;
#79 = CARTESIAN_POINT ( 'NONE',  ( 5.118626369006404662E-31, -4.216209264372889136E-32, 1.466032858907505801E-16 ) ) ;
#80 = APPROVAL_PERSON_ORGANIZATION ( #82, #102, #62 ) ;
#81 = CARTESIAN_POINT ( 'NONE',  ( 2.793185071074506684E-14, -1.250000000000000000, 8.000000000000000000 ) ) ;
#82 = PERSON_AND_ORGANIZATION ( #220, #131 ) ;
#83 = VERTEX_POINT ( 'NONE', #201 ) ;
#84 = AXIS2_PLACEMENT_3D ( 'NONE', #198, #216, #4 ) ;
#85 = PERSON_AND_ORGANIZATION_ROLE ( 'design_owner' ) ;
#86 = PERSON_AND_ORGANIZATION ( #220, #131 ) ;
#87 = ORIENTED_EDGE ( 'NONE', *, *, #65, .T. ) ;
#88 = APPROVAL_DATE_TIME ( #18, #102 ) ;
#89 = EDGE_LOOP ( 'NONE', ( #52 ) ) ;
#90 = CIRCLE ( 'NONE', #17, 1.500000000000002887 ) ;
#91 = FACE_OUTER_BOUND ( 'NONE', #193, .T. ) ;
#92 = PRODUCT_DEFINITION_SHAPE ( 'NONE', 'NONE',  #61 ) ;
#93 = CARTESIAN_POINT ( 'NONE',  ( -2.672346688141283363E-31, 9.373330401154662283E-33, -7.653905115891977700E-17 ) ) ;
#94 = DIRECTION ( 'NONE',  ( 0.0000000000000000000, -1.000000000000000000, 0.0000000000000000000 ) ) ;
#95 = CIRCLE ( 'NONE', #39, 1.250000000000002887 ) ;
#96 = CARTESIAN_POINT ( 'NONE',  ( 2.086160099958772211E-13, -7.317264624905434569E-15, 59.75000000000000000 ) ) ;
#97 = DIRECTION ( 'NONE',  ( -3.491481338843133355E-15, 1.224646799147353207E-16, -1.000000000000000000 ) ) ;
#98 = PERSON_AND_ORGANIZATION ( #220, #131 ) ;
#99 = AXIS2_PLACEMENT_3D ( 'NONE', #116, #14, #188 ) ;
#100 = CARTESIAN_POINT ( 'NONE',  ( 2.094888803305880013E-13, 1.249999999999995559, 60.00000000000000000 ) ) ;
#101 =( LENGTH_UNIT ( ) NAMED_UNIT ( * ) SI_UNIT ( .MILLI., .METRE. ) );
#102 = APPROVAL ( #219, 'UNSPECIFIED' ) ;
#103 = APPROVAL_STATUS ( 'not_yet_approved' ) ;
#104 = LOCAL_TIME ( 9, 40, 12.00000000000000000, #117 ) ;
#105 = ADVANCED_FACE ( 'NONE', ( #178, #141 ), #125, .T. ) ;
#106 = EDGE_LOOP ( 'NONE', ( #124 ) ) ;
#107 = PLANE ( 'NONE',  #43 ) ;
#108 = APPROVAL ( #32, 'UNSPECIFIED' ) ;
#109 = ORIENTED_EDGE ( 'NONE', *, *, #65, .F. ) ;
#110 = DIRECTION ( 'NONE',  ( 3.491481338843133355E-15, -1.276467311168695266E-16, 1.000000000000000000 ) ) ;
#111 = DIRECTION ( 'NONE',  ( 3.491481338843133355E-15, -1.276467311168695266E-16, 1.000000000000000000 ) ) ;
#112 = DIRECTION ( 'NONE',  ( -3.491481338843133355E-15, 1.224646799147353207E-16, -1.000000000000000000 ) ) ;
#113 = AXIS2_PLACEMENT_3D ( 'NONE', #200, #163, #94 ) ;
#114 = FACE_OUTER_BOUND ( 'NONE', #50, .T. ) ;
#115 = CC_DESIGN_PERSON_AND_ORGANIZATION_ASSIGNMENT ( #190, #85, ( #120 ) ) ;
#116 = CARTESIAN_POINT ( 'NONE',  ( 0.0000000000000000000, 0.0000000000000000000, 0.0000000000000000000 ) ) ;
#117 = COORDINATED_UNIVERSAL_TIME_OFFSET ( 1, 0, .AHEAD. ) ;
#118 = ADVANCED_BREP_SHAPE_REPRESENTATION ( '372582', ( #186, #183, #99 ), #51 ) ;
#119 = ORIENTED_EDGE ( 'NONE', *, *, #170, .T. ) ;
#120 = PRODUCT ( '372582', '372582', '', ( #45 ) ) ;
#121 = PLANE ( 'NONE',  #6 ) ;
#122 = DESIGN_CONTEXT ( 'detailed design', #27, 'design' ) ;
#123 = FACE_BOUND ( 'NONE', #106, .T. ) ;
#124 = ORIENTED_EDGE ( 'NONE', *, *, #189, .T. ) ;
#125 = CYLINDRICAL_SURFACE ( 'NONE', #13, 1.249999999999998890 ) ;
#126 = CC_DESIGN_APPROVAL ( #197, ( #61 ) ) ;
#127 = CC_DESIGN_PERSON_AND_ORGANIZATION_ASSIGNMENT ( #98, #12, ( #61 ) ) ;
#128 = DIRECTION ( 'NONE',  ( -3.491481338843133355E-15, 1.224646799147353207E-16, -1.000000000000000000 ) ) ;
#129 = COORDINATED_UNIVERSAL_TIME_OFFSET ( 1, 0, .AHEAD. ) ;
#130 = COORDINATED_UNIVERSAL_TIME_OFFSET ( 1, 0, .AHEAD. ) ;
#131 = ORGANIZATION ( 'UNSPECIFIED', 'UNSPECIFIED', '' ) ;
#132 = CARTESIAN_POINT ( 'NONE',  ( 2.086160099958772211E-13, 1.499999999999995559, 59.75000000000000000 ) ) ;
#133 = DIRECTION ( 'NONE',  ( -3.491481338843133355E-15, 1.224646799147353207E-16, -1.000000000000000000 ) ) ;
#134 = CLOSED_SHELL ( 'NONE', ( #212, #140, #38, #11, #69 ) ) ;
#135 = APPROVAL_ROLE ( '' ) ;
#136 = PERSON_AND_ORGANIZATION ( #220, #131 ) ;
#137 = EDGE_LOOP ( 'NONE', ( #157 ) ) ;
#138 = ORIENTED_EDGE ( 'NONE', *, *, #47, .F. ) ;
#139 = FACE_OUTER_BOUND ( 'NONE', #22, .T. ) ;
#140 = ADVANCED_FACE ( 'NONE', ( #184, #123 ), #164, .T. ) ;
#141 = FACE_OUTER_BOUND ( 'NONE', #208, .T. ) ;
#142 = SECURITY_CLASSIFICATION ( '', '', #2 ) ;
#143 = DIRECTION ( 'NONE',  ( 3.491481338843133355E-15, -1.224646799147353207E-16, 1.000000000000000000 ) ) ;
#144 = DIRECTION ( 'NONE',  ( 3.491481338843133355E-15, -1.224646799147353207E-16, 1.000000000000000000 ) ) ;
#145 = CARTESIAN_POINT ( 'NONE',  ( 2.094888803305880013E-13, 9.373498641636522468E-33, 60.00000000000000000 ) ) ;
#146 = CALENDAR_DATE ( 2021, 8, 12 ) ;
#147 = CC_DESIGN_PERSON_AND_ORGANIZATION_ASSIGNMENT ( #171, #73, ( #142 ) ) ;
#148 = CALENDAR_DATE ( 2021, 8, 12 ) ;
#149 = FACE_OUTER_BOUND ( 'NONE', #23, .T. ) ;
#150 = VERTEX_POINT ( 'NONE', #187 ) ;
#151 = CC_DESIGN_DATE_AND_TIME_ASSIGNMENT ( #70, #152, ( #142 ) ) ;
#152 = DATE_TIME_ROLE ( 'classification_date' ) ;
#153 = AXIS2_PLACEMENT_3D ( 'NONE', #79, #56, #75 ) ;
#154 = SHAPE_DEFINITION_REPRESENTATION ( #92, #118 ) ;
#155 = CC_DESIGN_PERSON_AND_ORGANIZATION_ASSIGNMENT ( #136, #19, ( #158 ) ) ;
#156 = PERSON_AND_ORGANIZATION ( #220, #131 ) ;
#157 = ORIENTED_EDGE ( 'NONE', *, *, #189, .F. ) ;
#158 = PRODUCT_DEFINITION_FORMATION_WITH_SPECIFIED_SOURCE ( 'ANY', '', #120, .NOT_KNOWN. ) ;
#159 = CARTESIAN_POINT ( 'NONE',  ( 2.793185071074506684E-14, 1.124819836996388964E-32, 8.000000000000000000 ) ) ;
#160 = DIRECTION ( 'NONE',  ( 4.275831445896958607E-31, 1.000000000000000000, 1.224646799147353207E-16 ) ) ;
#161 = DIRECTION ( 'NONE',  ( 3.491481338843133355E-15, -1.224646799147353207E-16, 1.000000000000000000 ) ) ;
#162 = EDGE_LOOP ( 'NONE', ( #35 ) ) ;
#163 = DIRECTION ( 'NONE',  ( -3.491481338843133355E-15, 1.276467311168695266E-16, -1.000000000000000000 ) ) ;
#164 = CONICAL_SURFACE ( 'NONE', #221, 1.250000000000002887, 0.7853981633974479459 ) ;
#165 = APPROVAL_DATE_TIME ( #28, #197 ) ;
#166 = CARTESIAN_POINT ( 'NONE',  ( 2.793185071074506684E-14, -1.250000000000000000, 8.000000000000000000 ) ) ;
#167 = DIRECTION ( 'NONE',  ( 4.275831445896958607E-31, 1.000000000000000000, 1.224646799147353207E-16 ) ) ;
#168 = AXIS2_PLACEMENT_3D ( 'NONE', #159, #161, #74 ) ;
#169 = PERSON_AND_ORGANIZATION ( #220, #131 ) ;
#170 = EDGE_CURVE ( 'NONE', #83, #83, #213, .T. ) ;
#171 = PERSON_AND_ORGANIZATION ( #220, #131 ) ;
#172 = CIRCLE ( 'NONE', #44, 1.249999999999998890 ) ;
#173 = ORIENTED_EDGE ( 'NONE', *, *, #209, .F. ) ;
#174 = UNCERTAINTY_MEASURE_WITH_UNIT (LENGTH_MEASURE( 1.000000000000000082E-05 ), #101, 'distance_accuracy_value', 'NONE');
#175 = COORDINATED_UNIVERSAL_TIME_OFFSET ( 1, 0, .AHEAD. ) ;
#176 = ORIENTED_EDGE ( 'NONE', *, *, #76, .F. ) ;
#177 = DATE_AND_TIME ( #210, #68 ) ;
#178 = FACE_OUTER_BOUND ( 'NONE', #162, .T. ) ;
#179 = EDGE_LOOP ( 'NONE', ( #173 ) ) ;
#180 = FACE_OUTER_BOUND ( 'NONE', #179, .T. ) ;
#181 = LOCAL_TIME ( 9, 40, 12.00000000000000000, #175 ) ;
#182 = FACE_OUTER_BOUND ( 'NONE', #78, .T. ) ;
#183 = MANIFOLD_SOLID_BREP ( 'Corps-Déplacer/Copier1[2]', #33 ) ;
#184 = FACE_OUTER_BOUND ( 'NONE', #10, .T. ) ;
#185 =( NAMED_UNIT ( * ) SI_UNIT ( $, .STERADIAN. ) SOLID_ANGLE_UNIT ( ) );
#186 = MANIFOLD_SOLID_BREP ( 'Corps-Déplacer/Copier1[1]', #134 ) ;
#187 = CARTESIAN_POINT ( 'NONE',  ( -4.523258767295535827E-32, -1.249999999999998890, -1.295512800533618173E-17 ) ) ;
#188 = DIRECTION ( 'NONE',  ( 1.000000000000000000, 0.0000000000000000000, 0.0000000000000000000 ) ) ;
#189 = EDGE_CURVE ( 'NONE', #222, #222, #95, .T. ) ;
#190 = PERSON_AND_ORGANIZATION ( #220, #131 ) ;
#191 = CC_DESIGN_SECURITY_CLASSIFICATION ( #142, ( #158 ) ) ;
#192 = CC_DESIGN_PERSON_AND_ORGANIZATION_ASSIGNMENT ( #156, #3, ( #158 ) ) ;
#193 = EDGE_LOOP ( 'NONE', ( #87 ) ) ;
#194 = PRODUCT_RELATED_PRODUCT_CATEGORY ( 'detail', '', ( #120 ) ) ;
#195 = PLANE ( 'NONE',  #20 ) ;
#196 = DIRECTION ( 'NONE',  ( 0.0000000000000000000, 1.000000000000000000, 0.0000000000000000000 ) ) ;
#197 = APPROVAL ( #103, 'UNSPECIFIED' ) ;
#198 = CARTESIAN_POINT ( 'NONE',  ( 9.308377946195077470E-14, -3.403094278676150060E-15, 26.66025403784432868 ) ) ;
#199 = CARTESIAN_POINT ( 'NONE',  ( 2.094888803305880013E-13, -7.347880794884118356E-15, 60.00000000000000000 ) ) ;
#200 = CARTESIAN_POINT ( 'NONE',  ( 3.118944714830536044E-14, -1.140269870422016240E-15, 8.933012701892218743 ) ) ;
#201 = CARTESIAN_POINT ( 'NONE',  ( 3.118944714830536044E-14, -1.500000000000000666, 8.933012701892218743 ) ) ;
#202 = APPROVAL_PERSON_ORGANIZATION ( #86, #108, #135 ) ;
#203 = ADVANCED_FACE ( 'NONE', ( #91 ), #55, .T. ) ;
#204 = APPLICATION_PROTOCOL_DEFINITION ( 'international standard', 'config_control_design', 1994, #57 ) ;
#205 = APPROVAL_ROLE ( '' ) ;
#206 = CC_DESIGN_APPROVAL ( #102, ( #158 ) ) ;
#207 = APPROVAL_DATE_TIME ( #177, #108 ) ;
#208 = EDGE_LOOP ( 'NONE', ( #109 ) ) ;
#209 = EDGE_CURVE ( 'NONE', #66, #66, #172, .T. ) ;
#210 = CALENDAR_DATE ( 2021, 8, 12 ) ;
#211 = CARTESIAN_POINT ( 'NONE',  ( 2.793185071074506684E-14, -1.021173848934956212E-15, 8.000000000000000000 ) ) ;
#212 = ADVANCED_FACE ( 'NONE', ( #149, #114 ), #29, .T. ) ;
#213 = CIRCLE ( 'NONE', #113, 1.499999999999999556 ) ;
#214 = CARTESIAN_POINT ( 'NONE',  ( -6.413839710158237013E-31, 0.0000000000000000000, -1.836996703606440502E-16 ) ) ;
#215 = FACE_OUTER_BOUND ( 'NONE', #137, .T. ) ;
#216 = DIRECTION ( 'NONE',  ( 3.491481338843133355E-15, -1.276467311168695266E-16, 1.000000000000000000 ) ) ;
#217 = LOCAL_TIME ( 9, 40, 12.00000000000000000, #130 ) ;
#218 = DATE_AND_TIME ( #148, #53 ) ;
#219 = APPROVAL_STATUS ( 'not_yet_approved' ) ;
#220 = PERSON ( 'UNSPECIFIED', 'UNSPECIFIED', 'UNSPECIFIED', ('UNSPECIFIED'), ('UNSPECIFIED'), ('UNSPECIFIED') ) ;
#221 = AXIS2_PLACEMENT_3D ( 'NONE', #199, #128, #196 ) ;
#222 = VERTEX_POINT ( 'NONE', #100 ) ;
#223 = VERTEX_POINT ( 'NONE', #81 ) ;
ENDSEC;
END-ISO-10303-21;
