ISO-10303-21;
HEADER;
FILE_DESCRIPTION (( 'STEP AP203' ),
    '1' );
FILE_NAME ('372581.step',
    '2021-12-08T08:40:12',
    ( '' ),
    ( '' ),
    'SwSTEP 2.0',
    'SolidWorks 2019',
    '' );
FILE_SCHEMA (( 'CONFIG_CONTROL_DESIGN' ));
ENDSEC;

DATA;
#1 = SECURITY_CLASSIFICATION ( '', '', #19 ) ;
#2 = EDGE_CURVE ( 'NONE', #132, #132, #120, .T. ) ;
#3 = APPROVAL_STATUS ( 'not_yet_approved' ) ;
#4 = COORDINATED_UNIVERSAL_TIME_OFFSET ( 1, 0, .AHEAD. ) ;
#5 = AXIS2_PLACEMENT_3D ( 'NONE', #15, #219, #188 ) ;
#6 = APPROVAL_PERSON_ORGANIZATION ( #210, #169, #105 ) ;
#7 = DIRECTION ( 'NONE',  ( 3.491481338843133355E-15, -1.276467311168695266E-16, 1.000000000000000000 ) ) ;
#8 = ORIENTED_EDGE ( 'NONE', *, *, #2, .F. ) ;
#9 = EDGE_LOOP ( 'NONE', ( #8 ) ) ;
#10 = CARTESIAN_POINT ( 'NONE',  ( 9.308377946195077470E-14, -3.403094278676150060E-15, 26.66025403784432868 ) ) ;
#11 = AXIS2_PLACEMENT_3D ( 'NONE', #130, #150, #134 ) ;
#12 = PLANE ( 'NONE',  #142 ) ;
#13 =( NAMED_UNIT ( * ) PLANE_ANGLE_UNIT ( ) SI_UNIT ( $, .RADIAN. ) );
#14 = CARTESIAN_POINT ( 'NONE',  ( 2.793185071074506684E-14, 1.124819836996389237E-32, 8.000000000000000000 ) ) ;
#15 = CARTESIAN_POINT ( 'NONE',  ( 1.326762908760390423E-13, 9.373498641636548468E-33, 38.00000000000000000 ) ) ;
#16 = VERTEX_POINT ( 'NONE', #80 ) ;
#17 = PERSON_AND_ORGANIZATION ( #95, #158 ) ;
#18 = AXIS2_PLACEMENT_3D ( 'NONE', #221, #165, #152 ) ;
#19 = SECURITY_CLASSIFICATION_LEVEL ( 'unclassified' ) ;
#20 = CC_DESIGN_PERSON_AND_ORGANIZATION_ASSIGNMENT ( #17, #82, ( #194 ) ) ;
#21 = DATE_AND_TIME ( #50, #86 ) ;
#22 = CIRCLE ( 'NONE', #66, 1.249999999999998890 ) ;
#23 = DIRECTION ( 'NONE',  ( 0.0000000000000000000, 0.0000000000000000000, 1.000000000000000000 ) ) ;
#24 = ORIENTED_EDGE ( 'NONE', *, *, #87, .T. ) ;
#25 = FACE_OUTER_BOUND ( 'NONE', #27, .T. ) ;
#26 = CARTESIAN_POINT ( 'NONE',  ( 2.793185071074506684E-14, -1.021173848934956212E-15, 8.000000000000000000 ) ) ;
#27 = EDGE_LOOP ( 'NONE', ( #54 ) ) ;
#28 = FACE_OUTER_BOUND ( 'NONE', #9, .T. ) ;
#29 = CARTESIAN_POINT ( 'NONE',  ( 1.318034205413282621E-13, -4.623041666781257365E-15, 37.74999999999999289 ) ) ;
#30 = CARTESIAN_POINT ( 'NONE',  ( 1.318034205413282621E-13, 1.499999999999996447, 37.74999999999999289 ) ) ;
#31 = VERTEX_POINT ( 'NONE', #115 ) ;
#32 = PERSON_AND_ORGANIZATION ( #95, #158 ) ;
#33 = COORDINATED_UNIVERSAL_TIME_OFFSET ( 1, 0, .AHEAD. ) ;
#34 = EDGE_CURVE ( 'NONE', #203, #203, #164, .T. ) ;
#35 = AXIS2_PLACEMENT_3D ( 'NONE', #133, #220, #59 ) ;
#36 = CC_DESIGN_DATE_AND_TIME_ASSIGNMENT ( #64, #123, ( #1 ) ) ;
#37 = EDGE_LOOP ( 'NONE', ( #217 ) ) ;
#38 = CIRCLE ( 'NONE', #208, 1.249999999999998890 ) ;
#39 = DIRECTION ( 'NONE',  ( 0.0000000000000000000, 1.000000000000000000, 0.0000000000000000000 ) ) ;
#40 = PLANE ( 'NONE',  #72 ) ;
#41 = AXIS2_PLACEMENT_3D ( 'NONE', #223, #61, #117 ) ;
#42 = VERTEX_POINT ( 'NONE', #30 ) ;
#43 = PLANE ( 'NONE',  #18 ) ;
#44 = CARTESIAN_POINT ( 'NONE',  ( 3.118944714830534782E-14, -1.499999999999999778, 8.933012701892215190 ) ) ;
#45 = EDGE_CURVE ( 'NONE', #31, #31, #215, .T. ) ;
#46 = AXIS2_PLACEMENT_3D ( 'NONE', #199, #183, #39 ) ;
#47 = FACE_OUTER_BOUND ( 'NONE', #108, .T. ) ;
#48 = APPROVAL_STATUS ( 'not_yet_approved' ) ;
#49 = COORDINATED_UNIVERSAL_TIME_OFFSET ( 1, 0, .AHEAD. ) ;
#50 = CALENDAR_DATE ( 2021, 8, 12 ) ;
#51 = APPROVAL_DATE_TIME ( #159, #144 ) ;
#52 = EDGE_LOOP ( 'NONE', ( #88 ) ) ;
#53 = ORIENTED_EDGE ( 'NONE', *, *, #173, .T. ) ;
#54 = ORIENTED_EDGE ( 'NONE', *, *, #2, .T. ) ;
#55 = CC_DESIGN_APPROVAL ( #69, ( #194 ) ) ;
#56 = FACE_OUTER_BOUND ( 'NONE', #73, .T. ) ;
#57 = FACE_OUTER_BOUND ( 'NONE', #127, .T. ) ;
#58 = APPLICATION_CONTEXT ( 'configuration controlled 3d designs of mechanical parts and assemblies' ) ;
#59 = DIRECTION ( 'NONE',  ( 0.0000000000000000000, 1.000000000000000000, 0.0000000000000000000 ) ) ;
#60 = CARTESIAN_POINT ( 'NONE',  ( 5.118626369006404662E-31, -4.216209264372889136E-32, 1.466032858907505801E-16 ) ) ;
#61 = DIRECTION ( 'NONE',  ( 3.491481338843133355E-15, -1.276467311168695266E-16, 1.000000000000000000 ) ) ;
#62 = CALENDAR_DATE ( 2021, 8, 12 ) ;
#63 = PERSON_AND_ORGANIZATION ( #95, #158 ) ;
#64 = DATE_AND_TIME ( #85, #185 ) ;
#65 = PERSON_AND_ORGANIZATION ( #95, #158 ) ;
#66 = AXIS2_PLACEMENT_3D ( 'NONE', #60, #190, #111 ) ;
#67 = PRODUCT_DEFINITION_FORMATION_WITH_SPECIFIED_SOURCE ( 'ANY', '', #81, .NOT_KNOWN. ) ;
#68 = DATE_TIME_ROLE ( 'creation_date' ) ;
#69 = APPROVAL ( #3, 'UNSPECIFIED' ) ;
#70 = FACE_BOUND ( 'NONE', #52, .T. ) ;
#71 = DIRECTION ( 'NONE',  ( 0.0000000000000000000, -1.000000000000000000, 0.0000000000000000000 ) ) ;
#72 = AXIS2_PLACEMENT_3D ( 'NONE', #14, #79, #151 ) ;
#73 = EDGE_LOOP ( 'NONE', ( #145 ) ) ;
#74 = CC_DESIGN_PERSON_AND_ORGANIZATION_ASSIGNMENT ( #157, #103, ( #67 ) ) ;
#75 = DIRECTION ( 'NONE',  ( 3.491481338843133355E-15, -1.276467311168695266E-16, 1.000000000000000000 ) ) ;
#76 = DIRECTION ( 'NONE',  ( 0.0000000000000000000, -1.000000000000000000, 0.0000000000000000000 ) ) ;
#77 = CC_DESIGN_DATE_AND_TIME_ASSIGNMENT ( #155, #68, ( #194 ) ) ;
#78 = DIRECTION ( 'NONE',  ( 0.0000000000000000000, 1.000000000000000000, 0.0000000000000000000 ) ) ;
#79 = DIRECTION ( 'NONE',  ( 3.491481338843133355E-15, -1.224646799147353207E-16, 1.000000000000000000 ) ) ;
#80 = CARTESIAN_POINT ( 'NONE',  ( -4.523258767295535827E-32, -1.249999999999998890, -1.295512800533618173E-17 ) ) ;
#81 = PRODUCT ( '372581', '372581', '', ( #177 ) ) ;
#82 = PERSON_AND_ORGANIZATION_ROLE ( 'creator' ) ;
#83 = APPLICATION_CONTEXT ( 'configuration controlled 3d designs of mechanical parts and assemblies' ) ;
#84 = ADVANCED_FACE ( 'NONE', ( #70, #25 ), #99, .T. ) ;
#85 = CALENDAR_DATE ( 2021, 8, 12 ) ;
#86 = LOCAL_TIME ( 9, 40, 12.00000000000000000, #49 ) ;
#87 = EDGE_CURVE ( 'NONE', #42, #42, #92, .T. ) ;
#88 = ORIENTED_EDGE ( 'NONE', *, *, #160, .T. ) ;
#89 = DIRECTION ( 'NONE',  ( 3.491481338843133355E-15, -1.276467311168695266E-16, 1.000000000000000000 ) ) ;
#90 = DIRECTION ( 'NONE',  ( 0.0000000000000000000, -1.000000000000000000, 0.0000000000000000000 ) ) ;
#91 = EDGE_LOOP ( 'NONE', ( #53 ) ) ;
#92 = CIRCLE ( 'NONE', #174, 1.500000000000000888 ) ;
#93 = CYLINDRICAL_SURFACE ( 'NONE', #11, 1.499999999999998668 ) ;
#94 =( LENGTH_UNIT ( ) NAMED_UNIT ( * ) SI_UNIT ( .MILLI., .METRE. ) );
#95 = PERSON ( 'UNSPECIFIED', 'UNSPECIFIED', 'UNSPECIFIED', ('UNSPECIFIED'), ('UNSPECIFIED'), ('UNSPECIFIED') ) ;
#96 = PLANE ( 'NONE',  #5 ) ;
#97 = AXIS2_PLACEMENT_3D ( 'NONE', #137, #23, #102 ) ;
#98 = CLOSED_SHELL ( 'NONE', ( #131, #213, #138 ) ) ;
#99 = CONICAL_SURFACE ( 'NONE', #126, 6.249999999999998224, 0.2617993877991501850 ) ;
#100 = VERTEX_POINT ( 'NONE', #168 ) ;
#101 = FACE_OUTER_BOUND ( 'NONE', #91, .T. ) ;
#102 = DIRECTION ( 'NONE',  ( 1.000000000000000000, 0.0000000000000000000, 0.0000000000000000000 ) ) ;
#103 = PERSON_AND_ORGANIZATION_ROLE ( 'creator' ) ;
#104 = APPROVAL_ROLE ( '' ) ;
#105 = APPROVAL_ROLE ( '' ) ;
#106 = DATE_AND_TIME ( #153, #191 ) ;
#107 = ORIENTED_EDGE ( 'NONE', *, *, #160, .F. ) ;
#108 = EDGE_LOOP ( 'NONE', ( #107 ) ) ;
#109 = ORIENTED_EDGE ( 'NONE', *, *, #173, .F. ) ;
#110 = EDGE_LOOP ( 'NONE', ( #198 ) ) ;
#111 = DIRECTION ( 'NONE',  ( -4.456761796588770537E-31, -1.000000000000000000, -1.276467311168695266E-16 ) ) ;
#112 = CYLINDRICAL_SURFACE ( 'NONE', #41, 1.249999999999998890 ) ;
#113 = CC_DESIGN_PERSON_AND_ORGANIZATION_ASSIGNMENT ( #32, #178, ( #81 ) ) ;
#114 = CARTESIAN_POINT ( 'NONE',  ( 2.793185071074506684E-14, -1.021173848934956212E-15, 8.000000000000000000 ) ) ;
#115 = CARTESIAN_POINT ( 'NONE',  ( 2.793185071074506684E-14, -1.250000000000000000, 8.000000000000000000 ) ) ;
#116 = APPROVAL_PERSON_ORGANIZATION ( #63, #69, #104 ) ;
#117 = DIRECTION ( 'NONE',  ( -4.456761796588770537E-31, -1.000000000000000000, -1.276467311168695019E-16 ) ) ;
#118 = ADVANCED_FACE ( 'NONE', ( #56 ), #96, .F. ) ;
#119 = APPROVAL_DATE_TIME ( #21, #169 ) ;
#120 = CIRCLE ( 'NONE', #135, 1.499999999999998668 ) ;
#121 = PERSON_AND_ORGANIZATION_ROLE ( 'classification_officer' ) ;
#122 = ADVANCED_FACE ( 'NONE', ( #186, #28 ), #93, .T. ) ;
#123 = DATE_TIME_ROLE ( 'classification_date' ) ;
#124 = APPLICATION_PROTOCOL_DEFINITION ( 'international standard', 'config_control_design', 1994, #58 ) ;
#125 = CC_DESIGN_APPROVAL ( #144, ( #1 ) ) ;
#126 = AXIS2_PLACEMENT_3D ( 'NONE', #10, #89, #71 ) ;
#127 = EDGE_LOOP ( 'NONE', ( #162 ) ) ;
#128 = PRODUCT_RELATED_PRODUCT_CATEGORY ( 'detail', '', ( #81 ) ) ;
#129 = CC_DESIGN_PERSON_AND_ORGANIZATION_ASSIGNMENT ( #175, #211, ( #67 ) ) ;
#130 = CARTESIAN_POINT ( 'NONE',  ( 0.0000000000000000000, 0.0000000000000000000, 0.0000000000000000000 ) ) ;
#131 = ADVANCED_FACE ( 'NONE', ( #57 ), #43, .T. ) ;
#132 = VERTEX_POINT ( 'NONE', #44 ) ;
#133 = CARTESIAN_POINT ( 'NONE',  ( 1.326762908760390423E-13, -4.653657836759941941E-15, 38.00000000000000000 ) ) ;
#134 = DIRECTION ( 'NONE',  ( 4.275831445896958607E-31, 1.000000000000000000, 1.224646799147353207E-16 ) ) ;
#135 = AXIS2_PLACEMENT_3D ( 'NONE', #163, #179, #182 ) ;
#136 = COORDINATED_UNIVERSAL_TIME_OFFSET ( 1, 0, .AHEAD. ) ;
#137 = CARTESIAN_POINT ( 'NONE',  ( 0.0000000000000000000, 0.0000000000000000000, 0.0000000000000000000 ) ) ;
#138 = ADVANCED_FACE ( 'NONE', ( #207 ), #12, .F. ) ;
#139 = APPROVAL_STATUS ( 'not_yet_approved' ) ;
#140 =( NAMED_UNIT ( * ) SI_UNIT ( $, .STERADIAN. ) SOLID_ANGLE_UNIT ( ) );
#141 = COORDINATED_UNIVERSAL_TIME_OFFSET ( 1, 0, .AHEAD. ) ;
#142 = AXIS2_PLACEMENT_3D ( 'NONE', #166, #170, #204 ) ;
#143 = EDGE_LOOP ( 'NONE', ( #184 ) ) ;
#144 = APPROVAL ( #139, 'UNSPECIFIED' ) ;
#145 = ORIENTED_EDGE ( 'NONE', *, *, #34, .F. ) ;
#146 = LOCAL_TIME ( 9, 40, 12.00000000000000000, #141 ) ;
#147 = APPROVAL_PERSON_ORGANIZATION ( #65, #144, #176 ) ;
#148 = EDGE_LOOP ( 'NONE', ( #109 ) ) ;
#149 = FACE_OUTER_BOUND ( 'NONE', #110, .T. ) ;
#150 = DIRECTION ( 'NONE',  ( -3.491481338843133355E-15, 1.224646799147353207E-16, -1.000000000000000000 ) ) ;
#151 = DIRECTION ( 'NONE',  ( -4.275831445896958607E-31, -1.000000000000000000, -1.224646799147353207E-16 ) ) ;
#152 = DIRECTION ( 'NONE',  ( -4.275831445896958607E-31, -1.000000000000000000, -1.224646799147353207E-16 ) ) ;
#153 = CALENDAR_DATE ( 2021, 8, 12 ) ;
#154 = LOCAL_TIME ( 9, 40, 12.00000000000000000, #136 ) ;
#155 = DATE_AND_TIME ( #62, #154 ) ;
#156 = PERSON_AND_ORGANIZATION ( #95, #158 ) ;
#157 = PERSON_AND_ORGANIZATION ( #95, #158 ) ;
#158 = ORGANIZATION ( 'UNSPECIFIED', 'UNSPECIFIED', '' ) ;
#159 = DATE_AND_TIME ( #212, #146 ) ;
#160 = EDGE_CURVE ( 'NONE', #100, #100, #38, .T. ) ;
#161 = CLOSED_SHELL ( 'NONE', ( #122, #216, #118, #84, #201 ) ) ;
#162 = ORIENTED_EDGE ( 'NONE', *, *, #45, .T. ) ;
#163 = CARTESIAN_POINT ( 'NONE',  ( 3.118944714830534782E-14, -1.140269870422015846E-15, 8.933012701892215190 ) ) ;
#164 = CIRCLE ( 'NONE', #46, 1.250000000000000888 ) ;
#165 = DIRECTION ( 'NONE',  ( 3.491481338843133355E-15, -1.224646799147353207E-16, 1.000000000000000000 ) ) ;
#166 = CARTESIAN_POINT ( 'NONE',  ( -2.672365049480656727E-31, 9.373394804063656554E-33, -7.653957704858069182E-17 ) ) ;
#167 = CONICAL_SURFACE ( 'NONE', #35, 1.250000000000000888, 0.7853981633974339571 ) ;
#168 = CARTESIAN_POINT ( 'NONE',  ( 2.793185071074506684E-14, -1.250000000000000000, 8.000000000000000000 ) ) ;
#169 = APPROVAL ( #48, 'UNSPECIFIED' ) ;
#170 = DIRECTION ( 'NONE',  ( 3.491481338843133355E-15, -1.224646799147353207E-16, 1.000000000000000000 ) ) ;
#171 = UNCERTAINTY_MEASURE_WITH_UNIT (LENGTH_MEASURE( 1.000000000000000082E-05 ), #94, 'distance_accuracy_value', 'NONE');
#172 = APPLICATION_PROTOCOL_DEFINITION ( 'international standard', 'config_control_design', 1994, #83 ) ;
#173 = EDGE_CURVE ( 'NONE', #16, #16, #22, .T. ) ;
#174 = AXIS2_PLACEMENT_3D ( 'NONE', #29, #222, #78 ) ;
#175 = PERSON_AND_ORGANIZATION ( #95, #158 ) ;
#176 = APPROVAL_ROLE ( '' ) ;
#177 = MECHANICAL_CONTEXT ( 'NONE', #58, 'mechanical' ) ;
#178 = PERSON_AND_ORGANIZATION_ROLE ( 'design_owner' ) ;
#179 = DIRECTION ( 'NONE',  ( -3.491481338843133355E-15, 1.276467311168695266E-16, -1.000000000000000000 ) ) ;
#180 = DESIGN_CONTEXT ( 'detailed design', #83, 'design' ) ;
#181 = EDGE_LOOP ( 'NONE', ( #24 ) ) ;
#182 = DIRECTION ( 'NONE',  ( 0.0000000000000000000, -1.000000000000000000, 0.0000000000000000000 ) ) ;
#183 = DIRECTION ( 'NONE',  ( -3.491481338843133355E-15, 1.224646799147353207E-16, -1.000000000000000000 ) ) ;
#184 = ORIENTED_EDGE ( 'NONE', *, *, #34, .T. ) ;
#185 = LOCAL_TIME ( 9, 40, 12.00000000000000000, #4 ) ;
#186 = FACE_OUTER_BOUND ( 'NONE', #181, .T. ) ;
#187 = MANIFOLD_SOLID_BREP ( 'Corps-Déplacer/Copier1[1]', #161 ) ;
#188 = DIRECTION ( 'NONE',  ( 4.275831445896958607E-31, 1.000000000000000000, 1.224646799147353207E-16 ) ) ;
#189 = MANIFOLD_SOLID_BREP ( 'Corps-Déplacer/Copier1[2]', #98 ) ;
#190 = DIRECTION ( 'NONE',  ( 3.491481338843133355E-15, -1.276467311168695266E-16, 1.000000000000000000 ) ) ;
#191 = LOCAL_TIME ( 9, 40, 12.00000000000000000, #33 ) ;
#192 =( GEOMETRIC_REPRESENTATION_CONTEXT ( 3 ) GLOBAL_UNCERTAINTY_ASSIGNED_CONTEXT ( ( #171 ) ) GLOBAL_UNIT_ASSIGNED_CONTEXT ( ( #94, #13, #140 ) ) REPRESENTATION_CONTEXT ( 'NONE', 'WORKASPACE' ) );
#193 = FACE_OUTER_BOUND ( 'NONE', #37, .T. ) ;
#194 = PRODUCT_DEFINITION ( 'UNKNOWN', '', #67, #180 ) ;
#195 = ADVANCED_BREP_SHAPE_REPRESENTATION ( '372581', ( #187, #189, #97 ), #192 ) ;
#196 = AXIS2_PLACEMENT_3D ( 'NONE', #26, #7, #90 ) ;
#197 = CC_DESIGN_PERSON_AND_ORGANIZATION_ASSIGNMENT ( #156, #121, ( #1 ) ) ;
#198 = ORIENTED_EDGE ( 'NONE', *, *, #45, .F. ) ;
#199 = CARTESIAN_POINT ( 'NONE',  ( 1.326762908760390423E-13, -4.653657836759941941E-15, 38.00000000000000000 ) ) ;
#200 = CC_DESIGN_SECURITY_CLASSIFICATION ( #1, ( #67 ) ) ;
#201 = ADVANCED_FACE ( 'NONE', ( #47 ), #40, .F. ) ;
#202 = CARTESIAN_POINT ( 'NONE',  ( 1.326762908760390423E-13, 1.249999999999996447, 38.00000000000000000 ) ) ;
#203 = VERTEX_POINT ( 'NONE', #202 ) ;
#204 = DIRECTION ( 'NONE',  ( -4.275831445896958607E-31, -1.000000000000000000, -1.224646799147353207E-16 ) ) ;
#205 = FACE_BOUND ( 'NONE', #143, .T. ) ;
#206 = PRODUCT_DEFINITION_SHAPE ( 'NONE', 'NONE',  #194 ) ;
#207 = FACE_OUTER_BOUND ( 'NONE', #148, .T. ) ;
#208 = AXIS2_PLACEMENT_3D ( 'NONE', #114, #75, #76 ) ;
#209 = APPROVAL_DATE_TIME ( #106, #69 ) ;
#210 = PERSON_AND_ORGANIZATION ( #95, #158 ) ;
#211 = PERSON_AND_ORGANIZATION_ROLE ( 'design_supplier' ) ;
#212 = CALENDAR_DATE ( 2021, 8, 12 ) ;
#213 = ADVANCED_FACE ( 'NONE', ( #101, #149 ), #112, .T. ) ;
#214 = SHAPE_DEFINITION_REPRESENTATION ( #206, #195 ) ;
#215 = CIRCLE ( 'NONE', #196, 1.249999999999998890 ) ;
#216 = ADVANCED_FACE ( 'NONE', ( #193, #205 ), #167, .T. ) ;
#217 = ORIENTED_EDGE ( 'NONE', *, *, #87, .F. ) ;
#218 = CC_DESIGN_APPROVAL ( #169, ( #67 ) ) ;
#219 = DIRECTION ( 'NONE',  ( -3.491481338843133355E-15, 1.224646799147353207E-16, -1.000000000000000000 ) ) ;
#220 = DIRECTION ( 'NONE',  ( -3.491481338843133355E-15, 1.224646799147353207E-16, -1.000000000000000000 ) ) ;
#221 = CARTESIAN_POINT ( 'NONE',  ( 2.793185071074506684E-14, 1.124819836996389237E-32, 8.000000000000000000 ) ) ;
#222 = DIRECTION ( 'NONE',  ( -3.491481338843133355E-15, 1.224646799147353207E-16, -1.000000000000000000 ) ) ;
#223 = CARTESIAN_POINT ( 'NONE',  ( -6.413839710158237013E-31, 0.0000000000000000000, -1.836996703606440502E-16 ) ) ;
ENDSEC;
END-ISO-10303-21;
