ISO-10303-21;
HEADER;
FILE_DESCRIPTION (( 'STEP AP203' ),
    '1' );
FILE_NAME ('372580.step',
    '2021-12-08T08:40:11',
    ( '' ),
    ( '' ),
    'SwSTEP 2.0',
    'SolidWorks 2019',
    '' );
FILE_SCHEMA (( 'CONFIG_CONTROL_DESIGN' ));
ENDSEC;

DATA;
#1 =( LENGTH_UNIT ( ) NAMED_UNIT ( * ) SI_UNIT ( .MILLI., .METRE. ) );
#2 = APPROVAL ( #206, 'UNSPECIFIED' ) ;
#3 = APPROVAL ( #162, 'UNSPECIFIED' ) ;
#4 = EDGE_LOOP ( 'NONE', ( #57 ) ) ;
#5 = ADVANCED_FACE ( 'NONE', ( #14, #27 ), #38, .T. ) ;
#6 = DIRECTION ( 'NONE',  ( 0.0000000000000000000, -1.000000000000000000, 0.0000000000000000000 ) ) ;
#7 = CLOSED_SHELL ( 'NONE', ( #62, #19, #86, #5, #48 ) ) ;
#8 = CIRCLE ( 'NONE', #189, 1.249999999999998890 ) ;
#9 = FACE_OUTER_BOUND ( 'NONE', #4, .T. ) ;
#10 = EDGE_LOOP ( 'NONE', ( #188 ) ) ;
#11 = AXIS2_PLACEMENT_3D ( 'NONE', #50, #134, #68 ) ;
#12 = DIRECTION ( 'NONE',  ( 0.0000000000000000000, 1.000000000000000000, 0.0000000000000000000 ) ) ;
#13 = PRODUCT_RELATED_PRODUCT_CATEGORY ( 'detail', '', ( #163 ) ) ;
#14 = FACE_BOUND ( 'NONE', #81, .T. ) ;
#15 = APPROVAL_ROLE ( '' ) ;
#16 = CARTESIAN_POINT ( 'NONE',  ( 2.793185071074506684E-14, -1.250000000000000000, 8.000000000000000000 ) ) ;
#17 = DATE_TIME_ROLE ( 'creation_date' ) ;
#18 = CARTESIAN_POINT ( 'NONE',  ( 1.047444401652940007E-13, 1.249999999999995559, 30.00000000000000000 ) ) ;
#19 = ADVANCED_FACE ( 'NONE', ( #129, #58 ), #51, .T. ) ;
#20 = VERTEX_POINT ( 'NONE', #18 ) ;
#21 = CIRCLE ( 'NONE', #11, 1.249999999999999112 ) ;
#22 = ADVANCED_FACE ( 'NONE', ( #25 ), #194, .T. ) ;
#23 = CARTESIAN_POINT ( 'NONE',  ( -2.672327272439283287E-31, 9.373262300039405397E-33, -7.653849507111304424E-17 ) ) ;
#24 = EDGE_LOOP ( 'NONE', ( #125 ) ) ;
#25 = FACE_OUTER_BOUND ( 'NONE', #63, .T. ) ;
#26 = ORIENTED_EDGE ( 'NONE', *, *, #208, .T. ) ;
#27 = FACE_OUTER_BOUND ( 'NONE', #29, .T. ) ;
#28 =( GEOMETRIC_REPRESENTATION_CONTEXT ( 3 ) GLOBAL_UNCERTAINTY_ASSIGNED_CONTEXT ( ( #172 ) ) GLOBAL_UNIT_ASSIGNED_CONTEXT ( ( #1, #74, #166 ) ) REPRESENTATION_CONTEXT ( 'NONE', 'WORKASPACE' ) );
#29 = EDGE_LOOP ( 'NONE', ( #195 ) ) ;
#30 = CARTESIAN_POINT ( 'NONE',  ( 2.793185071074506684E-14, 1.124819836996388964E-32, 8.000000000000000000 ) ) ;
#31 = DIRECTION ( 'NONE',  ( -3.491481338843133355E-15, 1.224646799147353207E-16, -1.000000000000000000 ) ) ;
#32 = CC_DESIGN_PERSON_AND_ORGANIZATION_ASSIGNMENT ( #110, #69, ( #174 ) ) ;
#33 = AXIS2_PLACEMENT_3D ( 'NONE', #23, #153, #173 ) ;
#34 = APPROVAL_DATE_TIME ( #75, #3 ) ;
#35 = CARTESIAN_POINT ( 'NONE',  ( 2.793185071074506684E-14, -1.250000000000000000, 8.000000000000000000 ) ) ;
#36 = DATE_AND_TIME ( #123, #170 ) ;
#37 = DIRECTION ( 'NONE',  ( 1.000000000000000000, 0.0000000000000000000, 0.0000000000000000000 ) ) ;
#38 = CONICAL_SURFACE ( 'NONE', #161, 6.249999999999998224, 0.2617993877991501850 ) ;
#39 = DIRECTION ( 'NONE',  ( -4.456761796588770537E-31, -1.000000000000000000, -1.276467311168695019E-16 ) ) ;
#40 = EDGE_CURVE ( 'NONE', #122, #122, #91, .T. ) ;
#41 = AXIS2_PLACEMENT_3D ( 'NONE', #61, #59, #127 ) ;
#42 = FACE_OUTER_BOUND ( 'NONE', #114, .T. ) ;
#43 = CARTESIAN_POINT ( 'NONE',  ( -6.413839710158237013E-31, 0.0000000000000000000, -1.836996703606440502E-16 ) ) ;
#44 = CC_DESIGN_SECURITY_CLASSIFICATION ( #82, ( #174 ) ) ;
#45 = CARTESIAN_POINT ( 'NONE',  ( 3.118944714830533520E-14, -1.140269870422015057E-15, 8.933012701892211638 ) ) ;
#46 = CARTESIAN_POINT ( 'NONE',  ( -4.523258767295535827E-32, -1.249999999999998890, -1.295512800533618173E-17 ) ) ;
#47 = SHAPE_DEFINITION_REPRESENTATION ( #66, #151 ) ;
#48 = ADVANCED_FACE ( 'NONE', ( #9 ), #65, .F. ) ;
#49 = CLOSED_SHELL ( 'NONE', ( #22, #106, #177 ) ) ;
#50 = CARTESIAN_POINT ( 'NONE',  ( 1.047444401652940007E-13, -3.673940397442059178E-15, 30.00000000000000000 ) ) ;
#51 = CONICAL_SURFACE ( 'NONE', #148, 1.249999999999999112, 0.7853981633974543852 ) ;
#52 = PERSON_AND_ORGANIZATION_ROLE ( 'classification_officer' ) ;
#53 = CC_DESIGN_DATE_AND_TIME_ASSIGNMENT ( #204, #17, ( #124 ) ) ;
#54 = PLANE ( 'NONE',  #33 ) ;
#55 = ORGANIZATION ( 'UNSPECIFIED', 'UNSPECIFIED', '' ) ;
#56 = EDGE_CURVE ( 'NONE', #201, #201, #8, .T. ) ;
#57 = ORIENTED_EDGE ( 'NONE', *, *, #40, .F. ) ;
#58 = FACE_BOUND ( 'NONE', #191, .T. ) ;
#59 = DIRECTION ( 'NONE',  ( 3.491481338843133355E-15, -1.276467311168695266E-16, 1.000000000000000000 ) ) ;
#60 = APPROVAL_PERSON_ORGANIZATION ( #147, #2, #165 ) ;
#61 = CARTESIAN_POINT ( 'NONE',  ( 2.793185071074506684E-14, -1.021173848934956212E-15, 8.000000000000000000 ) ) ;
#62 = ADVANCED_FACE ( 'NONE', ( #42, #155 ), #141, .T. ) ;
#63 = EDGE_LOOP ( 'NONE', ( #140 ) ) ;
#64 = DIRECTION ( 'NONE',  ( 3.491481338843133355E-15, -1.276467311168695266E-16, 1.000000000000000000 ) ) ;
#65 = PLANE ( 'NONE',  #100 ) ;
#66 = PRODUCT_DEFINITION_SHAPE ( 'NONE', 'NONE',  #124 ) ;
#67 = CARTESIAN_POINT ( 'NONE',  ( 1.038715698305832205E-13, 1.499999999999995337, 29.75000000000000355 ) ) ;
#68 = DIRECTION ( 'NONE',  ( 0.0000000000000000000, 1.000000000000000000, 0.0000000000000000000 ) ) ;
#69 = PERSON_AND_ORGANIZATION_ROLE ( 'design_supplier' ) ;
#70 = DIRECTION ( 'NONE',  ( 0.0000000000000000000, -1.000000000000000000, 0.0000000000000000000 ) ) ;
#71 = DATE_AND_TIME ( #105, #213 ) ;
#72 = AXIS2_PLACEMENT_3D ( 'NONE', #43, #115, #39 ) ;
#73 = CALENDAR_DATE ( 2021, 8, 12 ) ;
#74 =( NAMED_UNIT ( * ) PLANE_ANGLE_UNIT ( ) SI_UNIT ( $, .RADIAN. ) );
#75 = DATE_AND_TIME ( #89, #154 ) ;
#76 = CIRCLE ( 'NONE', #133, 1.499999999999997780 ) ;
#77 = LOCAL_TIME ( 9, 40, 11.00000000000000000, #109 ) ;
#78 = CC_DESIGN_PERSON_AND_ORGANIZATION_ASSIGNMENT ( #203, #52, ( #82 ) ) ;
#79 = DIRECTION ( 'NONE',  ( 0.0000000000000000000, 0.0000000000000000000, 1.000000000000000000 ) ) ;
#80 = PERSON ( 'UNSPECIFIED', 'UNSPECIFIED', 'UNSPECIFIED', ('UNSPECIFIED'), ('UNSPECIFIED'), ('UNSPECIFIED') ) ;
#81 = EDGE_LOOP ( 'NONE', ( #176 ) ) ;
#82 = SECURITY_CLASSIFICATION ( '', '', #150 ) ;
#83 = DIRECTION ( 'NONE',  ( 0.0000000000000000000, 1.000000000000000000, 0.0000000000000000000 ) ) ;
#84 = CARTESIAN_POINT ( 'NONE',  ( 2.793185071074506684E-14, 1.124819836996388964E-32, 8.000000000000000000 ) ) ;
#85 = DESIGN_CONTEXT ( 'detailed design', #209, 'design' ) ;
#86 = ADVANCED_FACE ( 'NONE', ( #116 ), #160, .F. ) ;
#87 = DATE_AND_TIME ( #73, #197 ) ;
#88 = APPLICATION_PROTOCOL_DEFINITION ( 'international standard', 'config_control_design', 1994, #90 ) ;
#89 = CALENDAR_DATE ( 2021, 8, 12 ) ;
#90 = APPLICATION_CONTEXT ( 'configuration controlled 3d designs of mechanical parts and assemblies' ) ;
#91 = CIRCLE ( 'NONE', #212, 1.249999999999998890 ) ;
#92 = COORDINATED_UNIVERSAL_TIME_OFFSET ( 1, 0, .AHEAD. ) ;
#93 = COORDINATED_UNIVERSAL_TIME_OFFSET ( 1, 0, .AHEAD. ) ;
#94 = DIRECTION ( 'NONE',  ( -4.275831445896958607E-31, -1.000000000000000000, -1.224646799147353207E-16 ) ) ;
#95 = EDGE_CURVE ( 'NONE', #102, #102, #179, .T. ) ;
#96 = DIRECTION ( 'NONE',  ( 3.491481338843133355E-15, -1.276467311168695266E-16, 1.000000000000000000 ) ) ;
#97 = EDGE_LOOP ( 'NONE', ( #215 ) ) ;
#98 = ORIENTED_EDGE ( 'NONE', *, *, #202, .T. ) ;
#99 = DIRECTION ( 'NONE',  ( -3.491481338843133355E-15, 1.224646799147353207E-16, -1.000000000000000000 ) ) ;
#100 = AXIS2_PLACEMENT_3D ( 'NONE', #30, #101, #94 ) ;
#101 = DIRECTION ( 'NONE',  ( 3.491481338843133355E-15, -1.224646799147353207E-16, 1.000000000000000000 ) ) ;
#102 = VERTEX_POINT ( 'NONE', #16 ) ;
#103 = CARTESIAN_POINT ( 'NONE',  ( 1.038715698305832205E-13, -3.643324227463376180E-15, 29.75000000000000355 ) ) ;
#104 = APPROVAL_PERSON_ORGANIZATION ( #168, #223, #218 ) ;
#105 = CALENDAR_DATE ( 2021, 8, 12 ) ;
#106 = ADVANCED_FACE ( 'NONE', ( #113, #156 ), #193, .T. ) ;
#107 = DIRECTION ( 'NONE',  ( -3.491481338843133355E-15, 1.224646799147353207E-16, -1.000000000000000000 ) ) ;
#108 = CARTESIAN_POINT ( 'NONE',  ( 5.118626369006404662E-31, -4.216209264372889136E-32, 1.466032858907505801E-16 ) ) ;
#109 = COORDINATED_UNIVERSAL_TIME_OFFSET ( 1, 0, .AHEAD. ) ;
#110 = PERSON_AND_ORGANIZATION ( #80, #55 ) ;
#111 = CC_DESIGN_PERSON_AND_ORGANIZATION_ASSIGNMENT ( #146, #135, ( #174 ) ) ;
#112 = MECHANICAL_CONTEXT ( 'NONE', #90, 'mechanical' ) ;
#113 = FACE_OUTER_BOUND ( 'NONE', #24, .T. ) ;
#114 = EDGE_LOOP ( 'NONE', ( #98 ) ) ;
#115 = DIRECTION ( 'NONE',  ( 3.491481338843133355E-15, -1.276467311168695266E-16, 1.000000000000000000 ) ) ;
#116 = FACE_OUTER_BOUND ( 'NONE', #138, .T. ) ;
#117 = DIRECTION ( 'NONE',  ( -3.491481338843133355E-15, 1.276467311168695266E-16, -1.000000000000000000 ) ) ;
#118 = PERSON_AND_ORGANIZATION ( #80, #55 ) ;
#119 = AXIS2_PLACEMENT_3D ( 'NONE', #196, #31, #216 ) ;
#120 = DIRECTION ( 'NONE',  ( 3.491481338843133355E-15, -1.276467311168695266E-16, 1.000000000000000000 ) ) ;
#121 = MANIFOLD_SOLID_BREP ( 'Corps-Déplacer/Copier1[1]', #7 ) ;
#122 = VERTEX_POINT ( 'NONE', #35 ) ;
#123 = CALENDAR_DATE ( 2021, 8, 12 ) ;
#124 = PRODUCT_DEFINITION ( 'UNKNOWN', '', #174, #85 ) ;
#125 = ORIENTED_EDGE ( 'NONE', *, *, #56, .T. ) ;
#126 = AXIS2_PLACEMENT_3D ( 'NONE', #84, #159, #143 ) ;
#127 = DIRECTION ( 'NONE',  ( 0.0000000000000000000, -1.000000000000000000, 0.0000000000000000000 ) ) ;
#128 = DIRECTION ( 'NONE',  ( -3.491481338843133355E-15, 1.224646799147353207E-16, -1.000000000000000000 ) ) ;
#129 = FACE_OUTER_BOUND ( 'NONE', #97, .T. ) ;
#130 = ORIENTED_EDGE ( 'NONE', *, *, #95, .F. ) ;
#131 = DATE_TIME_ROLE ( 'classification_date' ) ;
#132 = APPROVAL_STATUS ( 'not_yet_approved' ) ;
#133 = AXIS2_PLACEMENT_3D ( 'NONE', #45, #117, #70 ) ;
#134 = DIRECTION ( 'NONE',  ( -3.491481338843133355E-15, 1.224646799147353207E-16, -1.000000000000000000 ) ) ;
#135 = PERSON_AND_ORGANIZATION_ROLE ( 'creator' ) ;
#136 = CALENDAR_DATE ( 2021, 8, 12 ) ;
#137 = VERTEX_POINT ( 'NONE', #205 ) ;
#138 = EDGE_LOOP ( 'NONE', ( #214 ) ) ;
#139 = AXIS2_PLACEMENT_3D ( 'NONE', #103, #107, #12 ) ;
#140 = ORIENTED_EDGE ( 'NONE', *, *, #95, .T. ) ;
#141 = CYLINDRICAL_SURFACE ( 'NONE', #119, 1.499999999999997780 ) ;
#142 = CC_DESIGN_PERSON_AND_ORGANIZATION_ASSIGNMENT ( #167, #184, ( #124 ) ) ;
#143 = DIRECTION ( 'NONE',  ( -4.275831445896958607E-31, -1.000000000000000000, -1.224646799147353207E-16 ) ) ;
#144 = DIRECTION ( 'NONE',  ( 4.275831445896958607E-31, 1.000000000000000000, 1.224646799147353207E-16 ) ) ;
#145 = APPLICATION_PROTOCOL_DEFINITION ( 'international standard', 'config_control_design', 1994, #209 ) ;
#146 = PERSON_AND_ORGANIZATION ( #80, #55 ) ;
#147 = PERSON_AND_ORGANIZATION ( #80, #55 ) ;
#148 = AXIS2_PLACEMENT_3D ( 'NONE', #175, #99, #83 ) ;
#149 = COORDINATED_UNIVERSAL_TIME_OFFSET ( 1, 0, .AHEAD. ) ;
#150 = SECURITY_CLASSIFICATION_LEVEL ( 'unclassified' ) ;
#151 = ADVANCED_BREP_SHAPE_REPRESENTATION ( '372580', ( #121, #192, #152 ), #28 ) ;
#152 = AXIS2_PLACEMENT_3D ( 'NONE', #183, #79, #37 ) ;
#153 = DIRECTION ( 'NONE',  ( 3.491481338843133355E-15, -1.224646799147353207E-16, 1.000000000000000000 ) ) ;
#154 = LOCAL_TIME ( 9, 40, 11.00000000000000000, #149 ) ;
#155 = FACE_OUTER_BOUND ( 'NONE', #180, .T. ) ;
#156 = FACE_OUTER_BOUND ( 'NONE', #178, .T. ) ;
#157 = CARTESIAN_POINT ( 'NONE',  ( 9.308377946195077470E-14, -3.403094278676150060E-15, 26.66025403784432868 ) ) ;
#158 = CC_DESIGN_PERSON_AND_ORGANIZATION_ASSIGNMENT ( #118, #199, ( #163 ) ) ;
#159 = DIRECTION ( 'NONE',  ( 3.491481338843133355E-15, -1.224646799147353207E-16, 1.000000000000000000 ) ) ;
#160 = PLANE ( 'NONE',  #200 ) ;
#161 = AXIS2_PLACEMENT_3D ( 'NONE', #157, #64, #6 ) ;
#162 = APPROVAL_STATUS ( 'not_yet_approved' ) ;
#163 = PRODUCT ( '372580', '372580', '', ( #112 ) ) ;
#164 = DIRECTION ( 'NONE',  ( 0.0000000000000000000, -1.000000000000000000, 0.0000000000000000000 ) ) ;
#165 = APPROVAL_ROLE ( '' ) ;
#166 =( NAMED_UNIT ( * ) SI_UNIT ( $, .STERADIAN. ) SOLID_ANGLE_UNIT ( ) );
#167 = PERSON_AND_ORGANIZATION ( #80, #55 ) ;
#168 = PERSON_AND_ORGANIZATION ( #80, #55 ) ;
#169 = CC_DESIGN_APPROVAL ( #223, ( #174 ) ) ;
#170 = LOCAL_TIME ( 9, 40, 11.00000000000000000, #186 ) ;
#171 = FACE_OUTER_BOUND ( 'NONE', #10, .T. ) ;
#172 = UNCERTAINTY_MEASURE_WITH_UNIT (LENGTH_MEASURE( 1.000000000000000082E-05 ), #1, 'distance_accuracy_value', 'NONE');
#173 = DIRECTION ( 'NONE',  ( -4.275831445896958607E-31, -1.000000000000000000, -1.224646799147353207E-16 ) ) ;
#174 = PRODUCT_DEFINITION_FORMATION_WITH_SPECIFIED_SOURCE ( 'ANY', '', #163, .NOT_KNOWN. ) ;
#175 = CARTESIAN_POINT ( 'NONE',  ( 1.047444401652940007E-13, -3.673940397442059178E-15, 30.00000000000000000 ) ) ;
#176 = ORIENTED_EDGE ( 'NONE', *, *, #40, .T. ) ;
#177 = ADVANCED_FACE ( 'NONE', ( #171 ), #54, .F. ) ;
#178 = EDGE_LOOP ( 'NONE', ( #130 ) ) ;
#179 = CIRCLE ( 'NONE', #41, 1.249999999999998890 ) ;
#180 = EDGE_LOOP ( 'NONE', ( #210 ) ) ;
#181 = VERTEX_POINT ( 'NONE', #67 ) ;
#182 = EDGE_CURVE ( 'NONE', #137, #137, #76, .T. ) ;
#183 = CARTESIAN_POINT ( 'NONE',  ( 0.0000000000000000000, 0.0000000000000000000, 0.0000000000000000000 ) ) ;
#184 = PERSON_AND_ORGANIZATION_ROLE ( 'creator' ) ;
#185 = CC_DESIGN_APPROVAL ( #3, ( #82 ) ) ;
#186 = COORDINATED_UNIVERSAL_TIME_OFFSET ( 1, 0, .AHEAD. ) ;
#187 = APPROVAL_DATE_TIME ( #71, #223 ) ;
#188 = ORIENTED_EDGE ( 'NONE', *, *, #56, .F. ) ;
#189 = AXIS2_PLACEMENT_3D ( 'NONE', #108, #96, #190 ) ;
#190 = DIRECTION ( 'NONE',  ( -4.456761796588770537E-31, -1.000000000000000000, -1.276467311168695266E-16 ) ) ;
#191 = EDGE_LOOP ( 'NONE', ( #26 ) ) ;
#192 = MANIFOLD_SOLID_BREP ( 'Corps-Déplacer/Copier1[2]', #49 ) ;
#193 = CYLINDRICAL_SURFACE ( 'NONE', #72, 1.249999999999998890 ) ;
#194 = PLANE ( 'NONE',  #126 ) ;
#195 = ORIENTED_EDGE ( 'NONE', *, *, #182, .T. ) ;
#196 = CARTESIAN_POINT ( 'NONE',  ( 0.0000000000000000000, 0.0000000000000000000, 0.0000000000000000000 ) ) ;
#197 = LOCAL_TIME ( 9, 40, 11.00000000000000000, #92 ) ;
#198 = APPROVAL_DATE_TIME ( #36, #2 ) ;
#199 = PERSON_AND_ORGANIZATION_ROLE ( 'design_owner' ) ;
#200 = AXIS2_PLACEMENT_3D ( 'NONE', #211, #128, #144 ) ;
#201 = VERTEX_POINT ( 'NONE', #46 ) ;
#202 = EDGE_CURVE ( 'NONE', #181, #181, #220, .T. ) ;
#203 = PERSON_AND_ORGANIZATION ( #80, #55 ) ;
#204 = DATE_AND_TIME ( #136, #77 ) ;
#205 = CARTESIAN_POINT ( 'NONE',  ( 3.118944714830533520E-14, -1.499999999999998890, 8.933012701892211638 ) ) ;
#206 = APPROVAL_STATUS ( 'not_yet_approved' ) ;
#207 = CC_DESIGN_APPROVAL ( #2, ( #124 ) ) ;
#208 = EDGE_CURVE ( 'NONE', #20, #20, #21, .T. ) ;
#209 = APPLICATION_CONTEXT ( 'configuration controlled 3d designs of mechanical parts and assemblies' ) ;
#210 = ORIENTED_EDGE ( 'NONE', *, *, #182, .F. ) ;
#211 = CARTESIAN_POINT ( 'NONE',  ( 1.047444401652940007E-13, 9.373498641636548468E-33, 30.00000000000000000 ) ) ;
#212 = AXIS2_PLACEMENT_3D ( 'NONE', #221, #120, #164 ) ;
#213 = LOCAL_TIME ( 9, 40, 11.00000000000000000, #93 ) ;
#214 = ORIENTED_EDGE ( 'NONE', *, *, #208, .F. ) ;
#215 = ORIENTED_EDGE ( 'NONE', *, *, #202, .F. ) ;
#216 = DIRECTION ( 'NONE',  ( 4.275831445896959482E-31, 1.000000000000000000, 1.224646799147353207E-16 ) ) ;
#217 = CC_DESIGN_DATE_AND_TIME_ASSIGNMENT ( #87, #131, ( #82 ) ) ;
#218 = APPROVAL_ROLE ( '' ) ;
#219 = APPROVAL_PERSON_ORGANIZATION ( #222, #3, #15 ) ;
#220 = CIRCLE ( 'NONE', #139, 1.499999999999998890 ) ;
#221 = CARTESIAN_POINT ( 'NONE',  ( 2.793185071074506684E-14, -1.021173848934956212E-15, 8.000000000000000000 ) ) ;
#222 = PERSON_AND_ORGANIZATION ( #80, #55 ) ;
#223 = APPROVAL ( #132, 'UNSPECIFIED' ) ;
ENDSEC;
END-ISO-10303-21;
