ISO-10303-21;
HEADER;
FILE_DESCRIPTION (( 'STEP AP203' ),
    '1' );
FILE_NAME ('372579.step',
    '2021-12-08T08:40:10',
    ( '' ),
    ( '' ),
    'SwSTEP 2.0',
    'SolidWorks 2019',
    '' );
FILE_SCHEMA (( 'CONFIG_CONTROL_DESIGN' ));
ENDSEC;

DATA;
#1 = DATE_AND_TIME ( #71, #190 ) ;
#2 = CIRCLE ( 'NONE', #180, 0.9999999999999988898 ) ;
#3 = ADVANCED_FACE ( 'NONE', ( #157 ), #89, .F. ) ;
#4 = LOCAL_TIME ( 9, 40, 10.00000000000000000, #109 ) ;
#5 = PLANE ( 'NONE',  #11 ) ;
#6 = FACE_OUTER_BOUND ( 'NONE', #166, .T. ) ;
#7 = DIRECTION ( 'NONE',  ( -3.491481338843133355E-15, 1.224646799147353207E-16, -1.000000000000000000 ) ) ;
#8 = DIRECTION ( 'NONE',  ( 1.000000000000000000, 0.0000000000000000000, 0.0000000000000000000 ) ) ;
#9 = APPROVAL_STATUS ( 'not_yet_approved' ) ;
#10 = DIRECTION ( 'NONE',  ( 4.275831445896959482E-31, 1.000000000000000000, 1.224646799147353454E-16 ) ) ;
#11 = AXIS2_PLACEMENT_3D ( 'NONE', #20, #127, #148 ) ;
#12 = CC_DESIGN_APPROVAL ( #31, ( #59 ) ) ;
#13 = PERSON_AND_ORGANIZATION_ROLE ( 'classification_officer' ) ;
#14 = PRODUCT_RELATED_PRODUCT_CATEGORY ( 'detail', '', ( #87 ) ) ;
#15 = DESIGN_CONTEXT ( 'detailed design', #176, 'design' ) ;
#16 = PERSON_AND_ORGANIZATION ( #132, #86 ) ;
#17 = DIRECTION ( 'NONE',  ( 4.275831445896958607E-31, 1.000000000000000000, 1.224646799147353207E-16 ) ) ;
#18 = DIRECTION ( 'NONE',  ( 0.0000000000000000000, 1.000000000000000000, 0.0000000000000000000 ) ) ;
#19 = APPROVAL_ROLE ( '' ) ;
#20 = CARTESIAN_POINT ( 'NONE',  ( 2.793185071074506684E-14, 9.373498641636556679E-33, 8.000000000000000000 ) ) ;
#21 =( NAMED_UNIT ( * ) PLANE_ANGLE_UNIT ( ) SI_UNIT ( $, .RADIAN. ) );
#22 = PLANE ( 'NONE',  #80 ) ;
#23 = CC_DESIGN_APPROVAL ( #26, ( #195 ) ) ;
#24 = DIRECTION ( 'NONE',  ( 4.275831445896958607E-31, 1.000000000000000000, 1.224646799147352961E-16 ) ) ;
#25 = DIRECTION ( 'NONE',  ( -3.491481338843133355E-15, 1.224646799147353207E-16, -1.000000000000000000 ) ) ;
#26 = APPROVAL ( #9, 'UNSPECIFIED' ) ;
#27 = AXIS2_PLACEMENT_3D ( 'NONE', #196, #7, #10 ) ;
#28 = APPROVAL_PERSON_ORGANIZATION ( #98, #26, #179 ) ;
#29 = PRODUCT_DEFINITION_SHAPE ( 'NONE', 'NONE',  #195 ) ;
#30 = APPROVAL_DATE_TIME ( #73, #31 ) ;
#31 = APPROVAL ( #156, 'UNSPECIFIED' ) ;
#32 = CALENDAR_DATE ( 2021, 8, 12 ) ;
#33 = DATE_AND_TIME ( #172, #201 ) ;
#34 = DIRECTION ( 'NONE',  ( -3.491481338843133355E-15, 1.224646799147353207E-16, -1.000000000000000000 ) ) ;
#35 = DIRECTION ( 'NONE',  ( 0.0000000000000000000, 1.000000000000000000, 0.0000000000000000000 ) ) ;
#36 = APPLICATION_PROTOCOL_DEFINITION ( 'international standard', 'config_control_design', 1994, #176 ) ;
#37 = COORDINATED_UNIVERSAL_TIME_OFFSET ( 1, 0, .AHEAD. ) ;
#38 = ORIENTED_EDGE ( 'NONE', *, *, #135, .T. ) ;
#39 = ORIENTED_EDGE ( 'NONE', *, *, #79, .T. ) ;
#40 = APPLICATION_CONTEXT ( 'configuration controlled 3d designs of mechanical parts and assemblies' ) ;
#41 = ORIENTED_EDGE ( 'NONE', *, *, #107, .T. ) ;
#42 = FACE_OUTER_BOUND ( 'NONE', #184, .T. ) ;
#43 = DATE_AND_TIME ( #187, #52 ) ;
#44 = ADVANCED_FACE ( 'NONE', ( #191 ), #122, .F. ) ;
#45 = AXIS2_PLACEMENT_3D ( 'NONE', #95, #175, #35 ) ;
#46 = LOCAL_TIME ( 9, 40, 10.00000000000000000, #75 ) ;
#47 = CLOSED_SHELL ( 'NONE', ( #101, #152, #68, #3 ) ) ;
#48 = CARTESIAN_POINT ( 'NONE',  ( 1.326762908760390423E-13, 7.498798913309212774E-33, 38.00000000000000000 ) ) ;
#49 = CARTESIAN_POINT ( 'NONE',  ( 1.318034205413282621E-13, 1.249999999999994227, 37.74999999999999289 ) ) ;
#50 = APPROVAL ( #72, 'UNSPECIFIED' ) ;
#51 = CONICAL_SURFACE ( 'NONE', #137, 0.9999999999999988898, 0.7853981633974335130 ) ;
#52 = LOCAL_TIME ( 9, 40, 10.00000000000000000, #37 ) ;
#53 = ORIENTED_EDGE ( 'NONE', *, *, #121, .T. ) ;
#54 = ORIENTED_EDGE ( 'NONE', *, *, #107, .F. ) ;
#55 = ADVANCED_FACE ( 'NONE', ( #6, #63 ), #186, .T. ) ;
#56 = APPROVAL_ROLE ( '' ) ;
#57 = AXIS2_PLACEMENT_3D ( 'NONE', #102, #78, #110 ) ;
#58 = DATE_TIME_ROLE ( 'classification_date' ) ;
#59 = PRODUCT_DEFINITION_FORMATION_WITH_SPECIFIED_SOURCE ( 'ANY', '', #87, .NOT_KNOWN. ) ;
#60 = DIRECTION ( 'NONE',  ( -4.275831445896958607E-31, -1.000000000000000000, -1.224646799147353207E-16 ) ) ;
#61 = ADVANCED_BREP_SHAPE_REPRESENTATION ( '372579', ( #108, #115, #85 ), #99 ) ;
#62 = DATE_AND_TIME ( #145, #46 ) ;
#63 = FACE_OUTER_BOUND ( 'NONE', #69, .T. ) ;
#64 = CARTESIAN_POINT ( 'NONE',  ( -7.482691057936619918E-31, 1.249999999999994005, -2.143127896658308697E-16 ) ) ;
#65 = CC_DESIGN_PERSON_AND_ORGANIZATION_ASSIGNMENT ( #114, #177, ( #87 ) ) ;
#66 = MECHANICAL_CONTEXT ( 'NONE', #40, 'mechanical' ) ;
#67 = EDGE_LOOP ( 'NONE', ( #200 ) ) ;
#68 = ADVANCED_FACE ( 'NONE', ( #42, #159 ), #51, .T. ) ;
#69 = EDGE_LOOP ( 'NONE', ( #53 ) ) ;
#70 = AXIS2_PLACEMENT_3D ( 'NONE', #146, #76, #60 ) ;
#71 = CALENDAR_DATE ( 2021, 8, 12 ) ;
#72 = APPROVAL_STATUS ( 'not_yet_approved' ) ;
#73 = DATE_AND_TIME ( #32, #4 ) ;
#74 = DIRECTION ( 'NONE',  ( 0.0000000000000000000, 1.000000000000000000, 0.0000000000000000000 ) ) ;
#75 = COORDINATED_UNIVERSAL_TIME_OFFSET ( 1, 0, .AHEAD. ) ;
#76 = DIRECTION ( 'NONE',  ( 3.491481338843133355E-15, -1.224646799147353207E-16, 1.000000000000000000 ) ) ;
#77 = VERTEX_POINT ( 'NONE', #147 ) ;
#78 = DIRECTION ( 'NONE',  ( -3.491481338843133355E-15, 1.224646799147353207E-16, -1.000000000000000000 ) ) ;
#79 = EDGE_CURVE ( 'NONE', #82, #82, #199, .T. ) ;
#80 = AXIS2_PLACEMENT_3D ( 'NONE', #100, #119, #81 ) ;
#81 = DIRECTION ( 'NONE',  ( -4.275831445896958607E-31, -1.000000000000000000, -1.224646799147353207E-16 ) ) ;
#82 = VERTEX_POINT ( 'NONE', #49 ) ;
#83 = ORIENTED_EDGE ( 'NONE', *, *, #79, .F. ) ;
#84 = CC_DESIGN_DATE_AND_TIME_ASSIGNMENT ( #1, #58, ( #138 ) ) ;
#85 = AXIS2_PLACEMENT_3D ( 'NONE', #198, #149, #8 ) ;
#86 = ORGANIZATION ( 'UNSPECIFIED', 'UNSPECIFIED', '' ) ;
#87 = PRODUCT ( '372579', '372579', '', ( #66 ) ) ;
#88 = EDGE_LOOP ( 'NONE', ( #185 ) ) ;
#89 = PLANE ( 'NONE',  #111 ) ;
#90 = PERSON_AND_ORGANIZATION ( #132, #86 ) ;
#91 = APPROVAL_DATE_TIME ( #43, #26 ) ;
#92 = PERSON_AND_ORGANIZATION ( #132, #86 ) ;
#93 = CARTESIAN_POINT ( 'NONE',  ( 1.318034205413282621E-13, -4.623041666781257365E-15, 37.74999999999999289 ) ) ;
#94 = EDGE_LOOP ( 'NONE', ( #38 ) ) ;
#95 = CARTESIAN_POINT ( 'NONE',  ( 2.793185071074506684E-14, -9.797174393178825657E-16, 8.000000000000000000 ) ) ;
#96 = SHAPE_DEFINITION_REPRESENTATION ( #29, #61 ) ;
#97 = ADVANCED_FACE ( 'NONE', ( #143 ), #5, .T. ) ;
#98 = PERSON_AND_ORGANIZATION ( #132, #86 ) ;
#99 =( GEOMETRIC_REPRESENTATION_CONTEXT ( 3 ) GLOBAL_UNCERTAINTY_ASSIGNED_CONTEXT ( ( #194 ) ) GLOBAL_UNIT_ASSIGNED_CONTEXT ( ( #130, #21, #113 ) ) REPRESENTATION_CONTEXT ( 'NONE', 'WORKASPACE' ) );
#100 = CARTESIAN_POINT ( 'NONE',  ( 2.793185071074506684E-14, 9.373498641636556679E-33, 8.000000000000000000 ) ) ;
#101 = ADVANCED_FACE ( 'NONE', ( #167 ), #22, .F. ) ;
#102 = CARTESIAN_POINT ( 'NONE',  ( 0.0000000000000000000, 0.0000000000000000000, 0.0000000000000000000 ) ) ;
#103 = CARTESIAN_POINT ( 'NONE',  ( 1.326762908760390423E-13, -4.653657836759941941E-15, 38.00000000000000000 ) ) ;
#104 = PERSON_AND_ORGANIZATION_ROLE ( 'creator' ) ;
#105 = CIRCLE ( 'NONE', #150, 1.249999999999995115 ) ;
#106 = PERSON_AND_ORGANIZATION ( #132, #86 ) ;
#107 = EDGE_CURVE ( 'NONE', #116, #116, #2, .T. ) ;
#108 = MANIFOLD_SOLID_BREP ( 'Corps-Déplacer/Copier1[1]', #47 ) ;
#109 = COORDINATED_UNIVERSAL_TIME_OFFSET ( 1, 0, .AHEAD. ) ;
#110 = DIRECTION ( 'NONE',  ( 4.275831445896958607E-31, 1.000000000000000000, 1.224646799147353207E-16 ) ) ;
#111 = AXIS2_PLACEMENT_3D ( 'NONE', #48, #128, #17 ) ;
#112 = DIRECTION ( 'NONE',  ( -3.491481338843133355E-15, 1.224646799147353207E-16, -1.000000000000000000 ) ) ;
#113 =( NAMED_UNIT ( * ) SI_UNIT ( $, .STERADIAN. ) SOLID_ANGLE_UNIT ( ) );
#114 = PERSON_AND_ORGANIZATION ( #132, #86 ) ;
#115 = MANIFOLD_SOLID_BREP ( 'Corps-Déplacer/Copier1[2]', #203 ) ;
#116 = VERTEX_POINT ( 'NONE', #181 ) ;
#117 = CIRCLE ( 'NONE', #45, 1.249999999999995115 ) ;
#118 = CARTESIAN_POINT ( 'NONE',  ( 2.793185071074506684E-14, -9.797174393178825657E-16, 8.000000000000000000 ) ) ;
#119 = DIRECTION ( 'NONE',  ( 3.491481338843133355E-15, -1.224646799147353207E-16, 1.000000000000000000 ) ) ;
#120 = EDGE_LOOP ( 'NONE', ( #39 ) ) ;
#121 = EDGE_CURVE ( 'NONE', #77, #77, #117, .T. ) ;
#122 = PLANE ( 'NONE',  #70 ) ;
#123 = CC_DESIGN_PERSON_AND_ORGANIZATION_ASSIGNMENT ( #155, #13, ( #138 ) ) ;
#124 = CIRCLE ( 'NONE', #189, 1.249999999999994005 ) ;
#125 = APPROVAL_PERSON_ORGANIZATION ( #16, #50, #56 ) ;
#126 = DATE_TIME_ROLE ( 'creation_date' ) ;
#127 = DIRECTION ( 'NONE',  ( 3.491481338843133355E-15, -1.224646799147353207E-16, 1.000000000000000000 ) ) ;
#128 = DIRECTION ( 'NONE',  ( -3.491481338843133355E-15, 1.224646799147353207E-16, -1.000000000000000000 ) ) ;
#129 = VERTEX_POINT ( 'NONE', #193 ) ;
#130 =( LENGTH_UNIT ( ) NAMED_UNIT ( * ) SI_UNIT ( .MILLI., .METRE. ) );
#131 = CARTESIAN_POINT ( 'NONE',  ( -1.282748036530779234E-30, 4.499274447133310023E-32, -3.673936395592492872E-16 ) ) ;
#132 = PERSON ( 'UNSPECIFIED', 'UNSPECIFIED', 'UNSPECIFIED', ('UNSPECIFIED'), ('UNSPECIFIED'), ('UNSPECIFIED') ) ;
#133 = FACE_OUTER_BOUND ( 'NONE', #120, .T. ) ;
#134 = APPLICATION_PROTOCOL_DEFINITION ( 'international standard', 'config_control_design', 1994, #40 ) ;
#135 = EDGE_CURVE ( 'NONE', #197, #197, #124, .T. ) ;
#136 = EDGE_LOOP ( 'NONE', ( #165 ) ) ;
#137 = AXIS2_PLACEMENT_3D ( 'NONE', #103, #112, #174 ) ;
#138 = SECURITY_CLASSIFICATION ( '', '', #142 ) ;
#139 = PERSON_AND_ORGANIZATION ( #132, #86 ) ;
#140 = CC_DESIGN_DATE_AND_TIME_ASSIGNMENT ( #33, #126, ( #195 ) ) ;
#141 = APPROVAL_DATE_TIME ( #62, #50 ) ;
#142 = SECURITY_CLASSIFICATION_LEVEL ( 'unclassified' ) ;
#143 = FACE_OUTER_BOUND ( 'NONE', #136, .T. ) ;
#144 = CC_DESIGN_APPROVAL ( #50, ( #138 ) ) ;
#145 = CALENDAR_DATE ( 2021, 8, 12 ) ;
#146 = CARTESIAN_POINT ( 'NONE',  ( -6.413740182653896170E-31, 2.249637223566655011E-32, -1.836968197796246436E-16 ) ) ;
#147 = CARTESIAN_POINT ( 'NONE',  ( 2.793185071074506684E-14, 1.249999999999994005, 8.000000000000000000 ) ) ;
#148 = DIRECTION ( 'NONE',  ( -4.275831445896958607E-31, -1.000000000000000000, -1.224646799147353207E-16 ) ) ;
#149 = DIRECTION ( 'NONE',  ( 0.0000000000000000000, 0.0000000000000000000, 1.000000000000000000 ) ) ;
#150 = AXIS2_PLACEMENT_3D ( 'NONE', #118, #151, #18 ) ;
#151 = DIRECTION ( 'NONE',  ( -3.491481338843133355E-15, 1.224646799147353207E-16, -1.000000000000000000 ) ) ;
#152 = ADVANCED_FACE ( 'NONE', ( #158, #133 ), #160, .T. ) ;
#153 = ORIENTED_EDGE ( 'NONE', *, *, #135, .F. ) ;
#154 = COORDINATED_UNIVERSAL_TIME_OFFSET ( 1, 0, .AHEAD. ) ;
#155 = PERSON_AND_ORGANIZATION ( #132, #86 ) ;
#156 = APPROVAL_STATUS ( 'not_yet_approved' ) ;
#157 = FACE_OUTER_BOUND ( 'NONE', #183, .T. ) ;
#158 = FACE_OUTER_BOUND ( 'NONE', #88, .T. ) ;
#159 = FACE_BOUND ( 'NONE', #192, .T. ) ;
#160 = CYLINDRICAL_SURFACE ( 'NONE', #27, 1.249999999999996669 ) ;
#161 = CC_DESIGN_PERSON_AND_ORGANIZATION_ASSIGNMENT ( #90, #171, ( #59 ) ) ;
#162 = CARTESIAN_POINT ( 'NONE',  ( 1.326762908760390423E-13, -4.653657836759941941E-15, 38.00000000000000000 ) ) ;
#163 = APPROVAL_PERSON_ORGANIZATION ( #92, #31, #19 ) ;
#164 = DIRECTION ( 'NONE',  ( 0.0000000000000000000, 1.000000000000000000, 0.0000000000000000000 ) ) ;
#165 = ORIENTED_EDGE ( 'NONE', *, *, #121, .F. ) ;
#166 = EDGE_LOOP ( 'NONE', ( #153 ) ) ;
#167 = FACE_OUTER_BOUND ( 'NONE', #67, .T. ) ;
#168 = EDGE_CURVE ( 'NONE', #129, #129, #105, .T. ) ;
#169 = AXIS2_PLACEMENT_3D ( 'NONE', #93, #34, #74 ) ;
#170 = CC_DESIGN_SECURITY_CLASSIFICATION ( #138, ( #59 ) ) ;
#171 = PERSON_AND_ORGANIZATION_ROLE ( 'design_supplier' ) ;
#172 = CALENDAR_DATE ( 2021, 8, 12 ) ;
#173 = COORDINATED_UNIVERSAL_TIME_OFFSET ( 1, 0, .AHEAD. ) ;
#174 = DIRECTION ( 'NONE',  ( 0.0000000000000000000, 1.000000000000000000, 0.0000000000000000000 ) ) ;
#175 = DIRECTION ( 'NONE',  ( -3.491481338843133355E-15, 1.224646799147353207E-16, -1.000000000000000000 ) ) ;
#176 = APPLICATION_CONTEXT ( 'configuration controlled 3d designs of mechanical parts and assemblies' ) ;
#177 = PERSON_AND_ORGANIZATION_ROLE ( 'design_owner' ) ;
#178 = CC_DESIGN_PERSON_AND_ORGANIZATION_ASSIGNMENT ( #139, #188, ( #195 ) ) ;
#179 = APPROVAL_ROLE ( '' ) ;
#180 = AXIS2_PLACEMENT_3D ( 'NONE', #162, #25, #164 ) ;
#181 = CARTESIAN_POINT ( 'NONE',  ( 1.326762908760390423E-13, 0.9999999999999943379, 38.00000000000000000 ) ) ;
#182 = DIRECTION ( 'NONE',  ( -3.491481338843133355E-15, 1.224646799147353207E-16, -1.000000000000000000 ) ) ;
#183 = EDGE_LOOP ( 'NONE', ( #54 ) ) ;
#184 = EDGE_LOOP ( 'NONE', ( #83 ) ) ;
#185 = ORIENTED_EDGE ( 'NONE', *, *, #168, .F. ) ;
#186 = CYLINDRICAL_SURFACE ( 'NONE', #57, 1.249999999999994671 ) ;
#187 = CALENDAR_DATE ( 2021, 8, 12 ) ;
#188 = PERSON_AND_ORGANIZATION_ROLE ( 'creator' ) ;
#189 = AXIS2_PLACEMENT_3D ( 'NONE', #131, #182, #24 ) ;
#190 = LOCAL_TIME ( 9, 40, 10.00000000000000000, #173 ) ;
#191 = FACE_OUTER_BOUND ( 'NONE', #94, .T. ) ;
#192 = EDGE_LOOP ( 'NONE', ( #41 ) ) ;
#193 = CARTESIAN_POINT ( 'NONE',  ( 2.793185071074506684E-14, 1.249999999999994005, 8.000000000000000000 ) ) ;
#194 = UNCERTAINTY_MEASURE_WITH_UNIT (LENGTH_MEASURE( 1.000000000000000082E-05 ), #130, 'distance_accuracy_value', 'NONE');
#195 = PRODUCT_DEFINITION ( 'UNKNOWN', '', #59, #15 ) ;
#196 = CARTESIAN_POINT ( 'NONE',  ( 0.0000000000000000000, 0.0000000000000000000, 0.0000000000000000000 ) ) ;
#197 = VERTEX_POINT ( 'NONE', #64 ) ;
#198 = CARTESIAN_POINT ( 'NONE',  ( 0.0000000000000000000, 0.0000000000000000000, 0.0000000000000000000 ) ) ;
#199 = CIRCLE ( 'NONE', #169, 1.249999999999998668 ) ;
#200 = ORIENTED_EDGE ( 'NONE', *, *, #168, .T. ) ;
#201 = LOCAL_TIME ( 9, 40, 10.00000000000000000, #154 ) ;
#202 = CC_DESIGN_PERSON_AND_ORGANIZATION_ASSIGNMENT ( #106, #104, ( #59 ) ) ;
#203 = CLOSED_SHELL ( 'NONE', ( #44, #55, #97 ) ) ;
ENDSEC;
END-ISO-10303-21;
