ISO-10303-21;
HEADER;
FILE_DESCRIPTION (( 'STEP AP203' ),
    '1' );
FILE_NAME ('372578.step',
    '2021-12-08T08:40:10',
    ( '' ),
    ( '' ),
    'SwSTEP 2.0',
    'SolidWorks 2019',
    '' );
FILE_SCHEMA (( 'CONFIG_CONTROL_DESIGN' ));
ENDSEC;

DATA;
#1 = AXIS2_PLACEMENT_3D ( 'NONE', #8, #52, #159 ) ;
#2 = PLANE ( 'NONE',  #105 ) ;
#3 = FACE_OUTER_BOUND ( 'NONE', #138, .T. ) ;
#4 = FACE_OUTER_BOUND ( 'NONE', #205, .T. ) ;
#5 = APPROVAL_DATE_TIME ( #168, #175 ) ;
#6 = LOCAL_TIME ( 9, 40, 10.00000000000000000, #58 ) ;
#7 = CC_DESIGN_PERSON_AND_ORGANIZATION_ASSIGNMENT ( #26, #104, ( #67 ) ) ;
#8 = CARTESIAN_POINT ( 'NONE',  ( 0.0000000000000000000, 0.0000000000000000000, 0.0000000000000000000 ) ) ;
#9 = APPROVAL_STATUS ( 'not_yet_approved' ) ;
#10 = DIRECTION ( 'NONE',  ( -3.491481338843133355E-15, 1.224646799147353207E-16, -1.000000000000000000 ) ) ;
#11 = FACE_OUTER_BOUND ( 'NONE', #80, .T. ) ;
#12 = AXIS2_PLACEMENT_3D ( 'NONE', #195, #76, #197 ) ;
#13 = EDGE_LOOP ( 'NONE', ( #177 ) ) ;
#14 = APPROVAL_STATUS ( 'not_yet_approved' ) ;
#15 = EDGE_LOOP ( 'NONE', ( #113 ) ) ;
#16 = EDGE_LOOP ( 'NONE', ( #55 ) ) ;
#17 = ADVANCED_FACE ( 'NONE', ( #213, #24 ), #60, .T. ) ;
#18 = ORGANIZATION ( 'UNSPECIFIED', 'UNSPECIFIED', '' ) ;
#19 = CIRCLE ( 'NONE', #109, 0.9999999999999988898 ) ;
#20 = DIRECTION ( 'NONE',  ( 3.491481338843133355E-15, -1.224646799147353207E-16, 1.000000000000000000 ) ) ;
#21 = SHAPE_DEFINITION_REPRESENTATION ( #31, #163 ) ;
#22 = DIRECTION ( 'NONE',  ( -4.456761796588770537E-31, -1.000000000000000000, -1.276467311168695266E-16 ) ) ;
#23 = MANIFOLD_SOLID_BREP ( 'Corps-Déplacer/Copier1[1]', #64 ) ;
#24 = FACE_OUTER_BOUND ( 'NONE', #219, .T. ) ;
#25 = DIRECTION ( 'NONE',  ( -4.456761796588771413E-31, -1.000000000000000000, -1.276467311168695019E-16 ) ) ;
#26 = PERSON_AND_ORGANIZATION ( #46, #18 ) ;
#27 = ORIENTED_EDGE ( 'NONE', *, *, #92, .F. ) ;
#28 = DIRECTION ( 'NONE',  ( 0.0000000000000000000, 1.000000000000000000, 0.0000000000000000000 ) ) ;
#29 = CALENDAR_DATE ( 2021, 8, 12 ) ;
#30 = EDGE_CURVE ( 'NONE', #200, #200, #149, .T. ) ;
#31 = PRODUCT_DEFINITION_SHAPE ( 'NONE', 'NONE',  #73 ) ;
#32 = COORDINATED_UNIVERSAL_TIME_OFFSET ( 1, 0, .AHEAD. ) ;
#33 = APPROVAL_PERSON_ORGANIZATION ( #130, #161, #176 ) ;
#34 = DIRECTION ( 'NONE',  ( 3.491481338843133355E-15, -1.276467311168695266E-16, 1.000000000000000000 ) ) ;
#35 = ORIENTED_EDGE ( 'NONE', *, *, #116, .F. ) ;
#36 = APPLICATION_PROTOCOL_DEFINITION ( 'international standard', 'config_control_design', 1994, #74 ) ;
#37 = CC_DESIGN_DATE_AND_TIME_ASSIGNMENT ( #148, #54, ( #83 ) ) ;
#38 = DIRECTION ( 'NONE',  ( 1.000000000000000000, 0.0000000000000000000, 0.0000000000000000000 ) ) ;
#39 = ORIENTED_EDGE ( 'NONE', *, *, #116, .T. ) ;
#40 = AXIS2_PLACEMENT_3D ( 'NONE', #132, #193, #38 ) ;
#41 = DIRECTION ( 'NONE',  ( -3.491481338843133355E-15, 1.224646799147353207E-16, -1.000000000000000000 ) ) ;
#42 = CALENDAR_DATE ( 2021, 8, 12 ) ;
#43 = ORIENTED_EDGE ( 'NONE', *, *, #128, .F. ) ;
#44 = DIRECTION ( 'NONE',  ( 4.275831445896958607E-31, 1.000000000000000000, 1.224646799147353207E-16 ) ) ;
#45 = CC_DESIGN_PERSON_AND_ORGANIZATION_ASSIGNMENT ( #50, #99, ( #123 ) ) ;
#46 = PERSON ( 'UNSPECIFIED', 'UNSPECIFIED', 'UNSPECIFIED', ('UNSPECIFIED'), ('UNSPECIFIED'), ('UNSPECIFIED') ) ;
#47 = CARTESIAN_POINT ( 'NONE',  ( 4.094901095205113395E-31, -3.841940660073961603E-32, 1.172826287126001781E-16 ) ) ;
#48 = CLOSED_SHELL ( 'NONE', ( #90, #17, #117 ) ) ;
#49 = CARTESIAN_POINT ( 'NONE',  ( 2.793185071074506684E-14, 2.249639673992780117E-32, 8.000000000000000000 ) ) ;
#50 = PERSON_AND_ORGANIZATION ( #46, #18 ) ;
#51 = FACE_BOUND ( 'NONE', #72, .T. ) ;
#52 = DIRECTION ( 'NONE',  ( -3.491481338843133355E-15, 1.224646799147353207E-16, -1.000000000000000000 ) ) ;
#53 = SECURITY_CLASSIFICATION_LEVEL ( 'unclassified' ) ;
#54 = DATE_TIME_ROLE ( 'classification_date' ) ;
#55 = ORIENTED_EDGE ( 'NONE', *, *, #30, .T. ) ;
#56 = ADVANCED_FACE ( 'NONE', ( #101 ), #2, .F. ) ;
#57 =( NAMED_UNIT ( * ) PLANE_ANGLE_UNIT ( ) SI_UNIT ( $, .RADIAN. ) );
#58 = COORDINATED_UNIVERSAL_TIME_OFFSET ( 1, 0, .AHEAD. ) ;
#59 = DIRECTION ( 'NONE',  ( -4.275831445896958607E-31, -1.000000000000000000, -1.224646799147353207E-16 ) ) ;
#60 = CYLINDRICAL_SURFACE ( 'NONE', #191, 0.9999999999999986677 ) ;
#61 = CARTESIAN_POINT ( 'NONE',  ( 1.745740669421566678E-13, -6.123233995736766085E-15, 50.00000000000000000 ) ) ;
#62 = EDGE_LOOP ( 'NONE', ( #120 ) ) ;
#63 = CC_DESIGN_PERSON_AND_ORGANIZATION_ASSIGNMENT ( #71, #127, ( #83 ) ) ;
#64 = CLOSED_SHELL ( 'NONE', ( #139, #199, #110, #133, #56 ) ) ;
#65 = VERTEX_POINT ( 'NONE', #145 ) ;
#66 = CALENDAR_DATE ( 2021, 8, 12 ) ;
#67 = PRODUCT ( '372578', '372578', '', ( #194 ) ) ;
#68 = DATE_TIME_ROLE ( 'creation_date' ) ;
#69 = CC_DESIGN_APPROVAL ( #206, ( #83 ) ) ;
#70 = COORDINATED_UNIVERSAL_TIME_OFFSET ( 1, 0, .AHEAD. ) ;
#71 = PERSON_AND_ORGANIZATION ( #46, #18 ) ;
#72 = EDGE_LOOP ( 'NONE', ( #186 ) ) ;
#73 = PRODUCT_DEFINITION ( 'UNKNOWN', '', #123, #87 ) ;
#74 = APPLICATION_CONTEXT ( 'configuration controlled 3d designs of mechanical parts and assemblies' ) ;
#75 = CIRCLE ( 'NONE', #91, 0.9999999999999986677 ) ;
#76 = DIRECTION ( 'NONE',  ( -3.491481338843133355E-15, 1.276467311168695266E-16, -1.000000000000000000 ) ) ;
#77 = DIRECTION ( 'NONE',  ( 3.491481338843133355E-15, -1.224646799147353207E-16, 1.000000000000000000 ) ) ;
#78 = CARTESIAN_POINT ( 'NONE',  ( 1.745740669421566678E-13, 2.099663695726590798E-32, 50.00000000000000000 ) ) ;
#79 = DIRECTION ( 'NONE',  ( 0.0000000000000000000, 1.000000000000000000, 0.0000000000000000000 ) ) ;
#80 = EDGE_LOOP ( 'NONE', ( #27 ) ) ;
#81 = PRODUCT_RELATED_PRODUCT_CATEGORY ( 'detail', '', ( #67 ) ) ;
#82 = COORDINATED_UNIVERSAL_TIME_OFFSET ( 1, 0, .AHEAD. ) ;
#83 = SECURITY_CLASSIFICATION ( '', '', #53 ) ;
#84 = AXIS2_PLACEMENT_3D ( 'NONE', #121, #184, #97 ) ;
#85 = DIRECTION ( 'NONE',  ( 3.491481338843133355E-15, -1.276467311168695266E-16, 1.000000000000000000 ) ) ;
#86 = APPROVAL_ROLE ( '' ) ;
#87 = DESIGN_CONTEXT ( 'detailed design', #160, 'design' ) ;
#88 = CC_DESIGN_DATE_AND_TIME_ASSIGNMENT ( #221, #68, ( #73 ) ) ;
#89 = APPROVAL_PERSON_ORGANIZATION ( #185, #175, #86 ) ;
#90 = ADVANCED_FACE ( 'NONE', ( #3 ), #95, .T. ) ;
#91 = AXIS2_PLACEMENT_3D ( 'NONE', #47, #181, #22 ) ;
#92 = EDGE_CURVE ( 'NONE', #102, #102, #94, .T. ) ;
#93 = DATE_AND_TIME ( #107, #158 ) ;
#94 = CIRCLE ( 'NONE', #12, 2.999999999999996003 ) ;
#95 = PLANE ( 'NONE',  #173 ) ;
#96 = FACE_OUTER_BOUND ( 'NONE', #111, .T. ) ;
#97 = DIRECTION ( 'NONE',  ( 0.0000000000000000000, -1.000000000000000000, 0.0000000000000000000 ) ) ;
#98 = MANIFOLD_SOLID_BREP ( 'Corps-Déplacer/Copier1[2]', #48 ) ;
#99 = PERSON_AND_ORGANIZATION_ROLE ( 'creator' ) ;
#100 = CC_DESIGN_PERSON_AND_ORGANIZATION_ASSIGNMENT ( #198, #167, ( #123 ) ) ;
#101 = FACE_OUTER_BOUND ( 'NONE', #62, .T. ) ;
#102 = VERTEX_POINT ( 'NONE', #156 ) ;
#103 = VERTEX_POINT ( 'NONE', #215 ) ;
#104 = PERSON_AND_ORGANIZATION_ROLE ( 'design_owner' ) ;
#105 = AXIS2_PLACEMENT_3D ( 'NONE', #141, #20, #196 ) ;
#106 = CC_DESIGN_PERSON_AND_ORGANIZATION_ASSIGNMENT ( #202, #171, ( #73 ) ) ;
#107 = CALENDAR_DATE ( 2021, 8, 12 ) ;
#108 = CALENDAR_DATE ( 2021, 8, 12 ) ;
#109 = AXIS2_PLACEMENT_3D ( 'NONE', #192, #34, #187 ) ;
#110 = ADVANCED_FACE ( 'NONE', ( #150 ), #211, .F. ) ;
#111 = EDGE_LOOP ( 'NONE', ( #35 ) ) ;
#112 = PERSON_AND_ORGANIZATION ( #46, #18 ) ;
#113 = ORIENTED_EDGE ( 'NONE', *, *, #92, .T. ) ;
#114 = EDGE_LOOP ( 'NONE', ( #39 ) ) ;
#115 = APPROVAL_DATE_TIME ( #93, #161 ) ;
#116 = EDGE_CURVE ( 'NONE', #125, #125, #75, .T. ) ;
#117 = ADVANCED_FACE ( 'NONE', ( #96 ), #122, .F. ) ;
#118 = APPROVAL_PERSON_ORGANIZATION ( #112, #206, #131 ) ;
#119 = AXIS2_PLACEMENT_3D ( 'NONE', #204, #85, #144 ) ;
#120 = ORIENTED_EDGE ( 'NONE', *, *, #183, .F. ) ;
#121 = CARTESIAN_POINT ( 'NONE',  ( 2.793185071074506684E-14, -1.021173848934956212E-15, 8.000000000000000000 ) ) ;
#122 = PLANE ( 'NONE',  #179 ) ;
#123 = PRODUCT_DEFINITION_FORMATION_WITH_SPECIFIED_SOURCE ( 'ANY', '', #67, .NOT_KNOWN. ) ;
#124 = DIRECTION ( 'NONE',  ( -4.275831445896958607E-31, -1.000000000000000000, -1.224646799147353207E-16 ) ) ;
#125 = VERTEX_POINT ( 'NONE', #188 ) ;
#126 = CYLINDRICAL_SURFACE ( 'NONE', #1, 2.999999999999996003 ) ;
#127 = PERSON_AND_ORGANIZATION_ROLE ( 'classification_officer' ) ;
#128 = EDGE_CURVE ( 'NONE', #103, #103, #201, .T. ) ;
#129 = CONICAL_SURFACE ( 'NONE', #119, 5.999999999999999112, 0.2617993877991501850 ) ;
#130 = PERSON_AND_ORGANIZATION ( #46, #18 ) ;
#131 = APPROVAL_ROLE ( '' ) ;
#132 = CARTESIAN_POINT ( 'NONE',  ( 0.0000000000000000000, 0.0000000000000000000, 0.0000000000000000000 ) ) ;
#133 = ADVANCED_FACE ( 'NONE', ( #51, #169 ), #129, .T. ) ;
#134 = CARTESIAN_POINT ( 'NONE',  ( -6.413839710158237013E-31, 0.0000000000000000000, -1.836996703606440502E-16 ) ) ;
#135 = DIRECTION ( 'NONE',  ( -3.491481338843133355E-15, 1.224646799147353207E-16, -1.000000000000000000 ) ) ;
#136 = CC_DESIGN_SECURITY_CLASSIFICATION ( #83, ( #123 ) ) ;
#137 = AXIS2_PLACEMENT_3D ( 'NONE', #154, #140, #79 ) ;
#138 = EDGE_LOOP ( 'NONE', ( #222 ) ) ;
#139 = ADVANCED_FACE ( 'NONE', ( #172, #11 ), #126, .T. ) ;
#140 = DIRECTION ( 'NONE',  ( -3.491481338843133355E-15, 1.224646799147353207E-16, -1.000000000000000000 ) ) ;
#141 = CARTESIAN_POINT ( 'NONE',  ( 2.793185071074506684E-14, 2.249639673992780117E-32, 8.000000000000000000 ) ) ;
#142 = CIRCLE ( 'NONE', #162, 2.799999999999998490 ) ;
#143 = APPLICATION_PROTOCOL_DEFINITION ( 'international standard', 'config_control_design', 1994, #160 ) ;
#144 = DIRECTION ( 'NONE',  ( 0.0000000000000000000, -1.000000000000000000, 0.0000000000000000000 ) ) ;
#145 = CARTESIAN_POINT ( 'NONE',  ( 2.793185071074506684E-14, -1.000000000000000000, 8.000000000000000000 ) ) ;
#146 = ORIENTED_EDGE ( 'NONE', *, *, #30, .F. ) ;
#147 = AXIS2_PLACEMENT_3D ( 'NONE', #78, #41, #44 ) ;
#148 = DATE_AND_TIME ( #108, #209 ) ;
#149 = CIRCLE ( 'NONE', #189, 2.999999999999998668 ) ;
#150 = FACE_OUTER_BOUND ( 'NONE', #13, .T. ) ;
#151 = CARTESIAN_POINT ( 'NONE',  ( -4.275870630573523203E-31, 1.499773526796244679E-32, -1.224658022084772044E-16 ) ) ;
#152 = LOCAL_TIME ( 9, 40, 10.00000000000000000, #157 ) ;
#153 = ORIENTED_EDGE ( 'NONE', *, *, #208, .T. ) ;
#154 = CARTESIAN_POINT ( 'NONE',  ( 1.745740669421566678E-13, -6.123233995736766085E-15, 50.00000000000000000 ) ) ;
#155 = CC_DESIGN_APPROVAL ( #175, ( #73 ) ) ;
#156 = CARTESIAN_POINT ( 'NONE',  ( 5.399262221122731465E-14, -2.999999999999998224, 15.46410161513772152 ) ) ;
#157 = COORDINATED_UNIVERSAL_TIME_OFFSET ( 1, 0, .AHEAD. ) ;
#158 = LOCAL_TIME ( 9, 40, 10.00000000000000000, #32 ) ;
#159 = DIRECTION ( 'NONE',  ( 4.275831445896959482E-31, 1.000000000000000000, 1.224646799147353207E-16 ) ) ;
#160 = APPLICATION_CONTEXT ( 'configuration controlled 3d designs of mechanical parts and assemblies' ) ;
#161 = APPROVAL ( #9, 'UNSPECIFIED' ) ;
#162 = AXIS2_PLACEMENT_3D ( 'NONE', #61, #10, #28 ) ;
#163 = ADVANCED_BREP_SHAPE_REPRESENTATION ( '372578', ( #23, #98, #40 ), #170 ) ;
#164 = DIRECTION ( 'NONE',  ( 0.0000000000000000000, 1.000000000000000000, 0.0000000000000000000 ) ) ;
#165 =( LENGTH_UNIT ( ) NAMED_UNIT ( * ) SI_UNIT ( .MILLI., .METRE. ) );
#166 = DIRECTION ( 'NONE',  ( 3.491481338843133355E-15, -1.276467311168695266E-16, 1.000000000000000000 ) ) ;
#167 = PERSON_AND_ORGANIZATION_ROLE ( 'design_supplier' ) ;
#168 = DATE_AND_TIME ( #29, #207 ) ;
#169 = FACE_OUTER_BOUND ( 'NONE', #15, .T. ) ;
#170 =( GEOMETRIC_REPRESENTATION_CONTEXT ( 3 ) GLOBAL_UNCERTAINTY_ASSIGNED_CONTEXT ( ( #178 ) ) GLOBAL_UNIT_ASSIGNED_CONTEXT ( ( #165, #57, #223 ) ) REPRESENTATION_CONTEXT ( 'NONE', 'WORKASPACE' ) );
#171 = PERSON_AND_ORGANIZATION_ROLE ( 'creator' ) ;
#172 = FACE_OUTER_BOUND ( 'NONE', #16, .T. ) ;
#173 = AXIS2_PLACEMENT_3D ( 'NONE', #49, #77, #124 ) ;
#174 = EDGE_LOOP ( 'NONE', ( #153 ) ) ;
#175 = APPROVAL ( #216, 'UNSPECIFIED' ) ;
#176 = APPROVAL_ROLE ( '' ) ;
#177 = ORIENTED_EDGE ( 'NONE', *, *, #208, .F. ) ;
#178 = UNCERTAINTY_MEASURE_WITH_UNIT (LENGTH_MEASURE( 1.000000000000000082E-05 ), #165, 'distance_accuracy_value', 'NONE');
#179 = AXIS2_PLACEMENT_3D ( 'NONE', #151, #212, #59 ) ;
#180 = APPROVAL_DATE_TIME ( #182, #206 ) ;
#181 = DIRECTION ( 'NONE',  ( 3.491481338843133355E-15, -1.276467311168695266E-16, 1.000000000000000000 ) ) ;
#182 = DATE_AND_TIME ( #42, #6 ) ;
#183 = EDGE_CURVE ( 'NONE', #65, #65, #19, .T. ) ;
#184 = DIRECTION ( 'NONE',  ( 3.491481338843133355E-15, -1.276467311168695266E-16, 1.000000000000000000 ) ) ;
#185 = PERSON_AND_ORGANIZATION ( #46, #18 ) ;
#186 = ORIENTED_EDGE ( 'NONE', *, *, #183, .T. ) ;
#187 = DIRECTION ( 'NONE',  ( 0.0000000000000000000, -1.000000000000000000, 0.0000000000000000000 ) ) ;
#188 = CARTESIAN_POINT ( 'NONE',  ( -3.618607013836511207E-32, -0.9999999999999986677, -1.036410240426918204E-17 ) ) ;
#189 = AXIS2_PLACEMENT_3D ( 'NONE', #210, #135, #164 ) ;
#190 = CARTESIAN_POINT ( 'NONE',  ( 1.745740669421566678E-13, 2.799999999999992717, 50.00000000000000000 ) ) ;
#191 = AXIS2_PLACEMENT_3D ( 'NONE', #134, #166, #25 ) ;
#192 = CARTESIAN_POINT ( 'NONE',  ( 2.793185071074506684E-14, -1.021173848934956212E-15, 8.000000000000000000 ) ) ;
#193 = DIRECTION ( 'NONE',  ( 0.0000000000000000000, 0.0000000000000000000, 1.000000000000000000 ) ) ;
#194 = MECHANICAL_CONTEXT ( 'NONE', #74, 'mechanical' ) ;
#195 = CARTESIAN_POINT ( 'NONE',  ( 5.399262221122731465E-14, -1.973942020831432489E-15, 15.46410161513772152 ) ) ;
#196 = DIRECTION ( 'NONE',  ( -4.275831445896958607E-31, -1.000000000000000000, -1.224646799147353207E-16 ) ) ;
#197 = DIRECTION ( 'NONE',  ( 0.0000000000000000000, -1.000000000000000000, 0.0000000000000000000 ) ) ;
#198 = PERSON_AND_ORGANIZATION ( #46, #18 ) ;
#199 = ADVANCED_FACE ( 'NONE', ( #4, #217 ), #220, .T. ) ;
#200 = VERTEX_POINT ( 'NONE', #214 ) ;
#201 = CIRCLE ( 'NONE', #84, 0.9999999999999988898 ) ;
#202 = PERSON_AND_ORGANIZATION ( #46, #18 ) ;
#203 = VERTEX_POINT ( 'NONE', #190 ) ;
#204 = CARTESIAN_POINT ( 'NONE',  ( 9.308377946195078733E-14, -3.403094278676150455E-15, 26.66025403784433223 ) ) ;
#205 = EDGE_LOOP ( 'NONE', ( #146 ) ) ;
#206 = APPROVAL ( #14, 'UNSPECIFIED' ) ;
#207 = LOCAL_TIME ( 9, 40, 10.00000000000000000, #82 ) ;
#208 = EDGE_CURVE ( 'NONE', #203, #203, #142, .T. ) ;
#209 = LOCAL_TIME ( 9, 40, 10.00000000000000000, #70 ) ;
#210 = CARTESIAN_POINT ( 'NONE',  ( 1.738757706743880790E-13, -6.098741059753820160E-15, 49.80000000000000426 ) ) ;
#211 = PLANE ( 'NONE',  #147 ) ;
#212 = DIRECTION ( 'NONE',  ( 3.491481338843133355E-15, -1.224646799147353207E-16, 1.000000000000000000 ) ) ;
#213 = FACE_OUTER_BOUND ( 'NONE', #114, .T. ) ;
#214 = CARTESIAN_POINT ( 'NONE',  ( 1.738757706743880790E-13, 2.999999999999992895, 49.80000000000000426 ) ) ;
#215 = CARTESIAN_POINT ( 'NONE',  ( 2.793185071074506684E-14, -1.000000000000000000, 8.000000000000000000 ) ) ;
#216 = APPROVAL_STATUS ( 'not_yet_approved' ) ;
#217 = FACE_BOUND ( 'NONE', #174, .T. ) ;
#218 = CC_DESIGN_APPROVAL ( #161, ( #123 ) ) ;
#219 = EDGE_LOOP ( 'NONE', ( #43 ) ) ;
#220 = CONICAL_SURFACE ( 'NONE', #137, 2.799999999999998490, 0.7853981633974516097 ) ;
#221 = DATE_AND_TIME ( #66, #152 ) ;
#222 = ORIENTED_EDGE ( 'NONE', *, *, #128, .T. ) ;
#223 =( NAMED_UNIT ( * ) SI_UNIT ( $, .STERADIAN. ) SOLID_ANGLE_UNIT ( ) );
ENDSEC;
END-ISO-10303-21;
