ISO-10303-21;
HEADER;
FILE_DESCRIPTION (( 'STEP AP203' ),
    '1' );
FILE_NAME ('372577.step',
    '2021-12-08T08:40:09',
    ( '' ),
    ( '' ),
    'SwSTEP 2.0',
    'SolidWorks 2019',
    '' );
FILE_SCHEMA (( 'CONFIG_CONTROL_DESIGN' ));
ENDSEC;

DATA;
#1 = ADVANCED_FACE ( 'NONE', ( #43, #130 ), #216, .T. ) ;
#2 = CARTESIAN_POINT ( 'NONE',  ( 2.793185071074506684E-14, -1.000000000000000000, 8.000000000000000000 ) ) ;
#3 = CIRCLE ( 'NONE', #67, 0.9999999999999988898 ) ;
#4 = APPLICATION_PROTOCOL_DEFINITION ( 'international standard', 'config_control_design', 1994, #114 ) ;
#5 = ADVANCED_BREP_SHAPE_REPRESENTATION ( '372577', ( #175, #29, #177 ), #100 ) ;
#6 = APPROVAL_STATUS ( 'not_yet_approved' ) ;
#7 = DIRECTION ( 'NONE',  ( 3.491481338843133355E-15, -1.276467311168695266E-16, 1.000000000000000000 ) ) ;
#8 = ADVANCED_FACE ( 'NONE', ( #79 ), #61, .T. ) ;
#9 = PLANE ( 'NONE',  #71 ) ;
#10 = CARTESIAN_POINT ( 'NONE',  ( -3.206893176760993809E-31, 1.124826709063584141E-32, -9.184907108292221668E-17 ) ) ;
#11 = LOCAL_TIME ( 9, 40, 9.000000000000000000, #220 ) ;
#12 = APPROVAL_ROLE ( '' ) ;
#13 = EDGE_LOOP ( 'NONE', ( #143 ) ) ;
#14 = DIRECTION ( 'NONE',  ( -3.491481338843133355E-15, 1.224646799147353207E-16, -1.000000000000000000 ) ) ;
#15 = DIRECTION ( 'NONE',  ( -4.275831445896958607E-31, -1.000000000000000000, -1.224646799147353207E-16 ) ) ;
#16 = COORDINATED_UNIVERSAL_TIME_OFFSET ( 1, 0, .AHEAD. ) ;
#17 = DIRECTION ( 'NONE',  ( 3.491481338843133355E-15, -1.276467311168695266E-16, 1.000000000000000000 ) ) ;
#18 = AXIS2_PLACEMENT_3D ( 'NONE', #116, #14, #146 ) ;
#19 = DIRECTION ( 'NONE',  ( -3.491481338843133355E-15, 1.224646799147353207E-16, -1.000000000000000000 ) ) ;
#20 = CC_DESIGN_PERSON_AND_ORGANIZATION_ASSIGNMENT ( #212, #54, ( #140 ) ) ;
#21 = UNCERTAINTY_MEASURE_WITH_UNIT (LENGTH_MEASURE( 1.000000000000000082E-05 ), #206, 'distance_accuracy_value', 'NONE');
#22 = CLOSED_SHELL ( 'NONE', ( #8, #72, #97 ) ) ;
#23 = PERSON_AND_ORGANIZATION_ROLE ( 'design_owner' ) ;
#24 = CONICAL_SURFACE ( 'NONE', #53, 1.800000000000000044, 0.7853981633974516097 ) ;
#25 = APPROVAL ( #169, 'UNSPECIFIED' ) ;
#26 = CALENDAR_DATE ( 2021, 8, 12 ) ;
#27 = FACE_OUTER_BOUND ( 'NONE', #218, .T. ) ;
#28 = FACE_OUTER_BOUND ( 'NONE', #30, .T. ) ;
#29 = MANIFOLD_SOLID_BREP ( 'Corps-Déplacer/Copier1[2]', #22 ) ;
#30 = EDGE_LOOP ( 'NONE', ( #131 ) ) ;
#31 = DIRECTION ( 'NONE',  ( -3.491481338843133355E-15, 1.224646799147353207E-16, -1.000000000000000000 ) ) ;
#32 = FACE_OUTER_BOUND ( 'NONE', #103, .T. ) ;
#33 = SECURITY_CLASSIFICATION_LEVEL ( 'unclassified' ) ;
#34 = CIRCLE ( 'NONE', #142, 1.800000000000000044 ) ;
#35 = DATE_TIME_ROLE ( 'classification_date' ) ;
#36 = APPROVAL ( #91, 'UNSPECIFIED' ) ;
#37 = CARTESIAN_POINT ( 'NONE',  ( 2.087905840628193620E-13, 1.999999999999992673, 59.79999999999999716 ) ) ;
#38 = PERSON_AND_ORGANIZATION ( #139, #189 ) ;
#39 = APPROVAL_PERSON_ORGANIZATION ( #121, #25, #12 ) ;
#40 = ORIENTED_EDGE ( 'NONE', *, *, #204, .F. ) ;
#41 = CLOSED_SHELL ( 'NONE', ( #1, #181, #107, #151, #68 ) ) ;
#42 = PLANE ( 'NONE',  #66 ) ;
#43 = FACE_OUTER_BOUND ( 'NONE', #98, .T. ) ;
#44 = DIRECTION ( 'NONE',  ( 0.0000000000000000000, -1.000000000000000000, 0.0000000000000000000 ) ) ;
#45 = DIRECTION ( 'NONE',  ( -4.456761796588770537E-31, -1.000000000000000000, -1.276467311168695266E-16 ) ) ;
#46 = PERSON_AND_ORGANIZATION ( #139, #189 ) ;
#47 = VERTEX_POINT ( 'NONE', #122 ) ;
#48 = CARTESIAN_POINT ( 'NONE',  ( 2.087905840628193620E-13, -7.323387858901173219E-15, 59.79999999999999716 ) ) ;
#49 = DIRECTION ( 'NONE',  ( -3.491481338843133355E-15, 1.224646799147353207E-16, -1.000000000000000000 ) ) ;
#50 = APPROVAL ( #6, 'UNSPECIFIED' ) ;
#51 = MECHANICAL_CONTEXT ( 'NONE', #163, 'mechanical' ) ;
#52 = EDGE_CURVE ( 'NONE', #108, #108, #188, .T. ) ;
#53 = AXIS2_PLACEMENT_3D ( 'NONE', #207, #49, #186 ) ;
#54 = PERSON_AND_ORGANIZATION_ROLE ( 'creator' ) ;
#55 = PERSON_AND_ORGANIZATION ( #139, #189 ) ;
#56 = CARTESIAN_POINT ( 'NONE',  ( 2.793185071074506684E-14, 1.499759782661851039E-32, 8.000000000000000000 ) ) ;
#57 = CARTESIAN_POINT ( 'NONE',  ( 2.094888803305880013E-13, -7.347880794884118356E-15, 60.00000000000000000 ) ) ;
#58 = AXIS2_PLACEMENT_3D ( 'NONE', #201, #7, #45 ) ;
#59 = CC_DESIGN_DATE_AND_TIME_ASSIGNMENT ( #101, #35, ( #125 ) ) ;
#60 = CARTESIAN_POINT ( 'NONE',  ( 4.096223646098617812E-14, -1.497557934883193562E-15, 11.73205080756885721 ) ) ;
#61 = PLANE ( 'NONE',  #86 ) ;
#62 = VERTEX_POINT ( 'NONE', #2 ) ;
#63 = LOCAL_TIME ( 9, 40, 9.000000000000000000, #133 ) ;
#64 = CC_DESIGN_SECURITY_CLASSIFICATION ( #125, ( #222 ) ) ;
#65 = DIRECTION ( 'NONE',  ( 0.0000000000000000000, -1.000000000000000000, 0.0000000000000000000 ) ) ;
#66 = AXIS2_PLACEMENT_3D ( 'NONE', #199, #31, #77 ) ;
#67 = AXIS2_PLACEMENT_3D ( 'NONE', #145, #118, #221 ) ;
#68 = ADVANCED_FACE ( 'NONE', ( #27 ), #9, .F. ) ;
#69 = PERSON_AND_ORGANIZATION ( #139, #189 ) ;
#70 = DATE_AND_TIME ( #160, #117 ) ;
#71 = AXIS2_PLACEMENT_3D ( 'NONE', #74, #94, #205 ) ;
#72 = ADVANCED_FACE ( 'NONE', ( #152, #187 ), #223, .T. ) ;
#73 = DIRECTION ( 'NONE',  ( 0.0000000000000000000, 1.000000000000000000, 0.0000000000000000000 ) ) ;
#74 = CARTESIAN_POINT ( 'NONE',  ( 2.793185071074506684E-14, 1.499759782661851039E-32, 8.000000000000000000 ) ) ;
#75 = CC_DESIGN_DATE_AND_TIME_ASSIGNMENT ( #115, #168, ( #140 ) ) ;
#76 = AXIS2_PLACEMENT_3D ( 'NONE', #10, #172, #15 ) ;
#77 = DIRECTION ( 'NONE',  ( 4.275831445896958607E-31, 1.000000000000000000, 1.224646799147353207E-16 ) ) ;
#78 = PERSON_AND_ORGANIZATION_ROLE ( 'classification_officer' ) ;
#79 = FACE_OUTER_BOUND ( 'NONE', #180, .T. ) ;
#80 = CALENDAR_DATE ( 2021, 8, 12 ) ;
#81 = EDGE_LOOP ( 'NONE', ( #96 ) ) ;
#82 = CARTESIAN_POINT ( 'NONE',  ( 2.793185071074506684E-14, -1.000000000000000000, 8.000000000000000000 ) ) ;
#83 = CIRCLE ( 'NONE', #200, 2.000000000000000000 ) ;
#84 = COORDINATED_UNIVERSAL_TIME_OFFSET ( 1, 0, .AHEAD. ) ;
#85 = VERTEX_POINT ( 'NONE', #185 ) ;
#86 = AXIS2_PLACEMENT_3D ( 'NONE', #56, #149, #134 ) ;
#87 = DATE_AND_TIME ( #102, #161 ) ;
#88 = DIRECTION ( 'NONE',  ( 1.000000000000000000, 0.0000000000000000000, 0.0000000000000000000 ) ) ;
#89 = AXIS2_PLACEMENT_3D ( 'NONE', #90, #211, #217 ) ;
#90 = CARTESIAN_POINT ( 'NONE',  ( -6.413839710158237013E-31, 0.0000000000000000000, -1.836996703606440502E-16 ) ) ;
#91 = APPROVAL_STATUS ( 'not_yet_approved' ) ;
#92 = PRODUCT_DEFINITION_SHAPE ( 'NONE', 'NONE',  #140 ) ;
#93 = APPROVAL_ROLE ( '' ) ;
#94 = DIRECTION ( 'NONE',  ( 3.491481338843133355E-15, -1.224646799147353207E-16, 1.000000000000000000 ) ) ;
#95 = CARTESIAN_POINT ( 'NONE',  ( 9.308377946195078733E-14, -3.403094278676150455E-15, 26.66025403784433223 ) ) ;
#96 = ORIENTED_EDGE ( 'NONE', *, *, #124, .T. ) ;
#97 = ADVANCED_FACE ( 'NONE', ( #147 ), #166, .F. ) ;
#98 = EDGE_LOOP ( 'NONE', ( #182 ) ) ;
#99 = EDGE_LOOP ( 'NONE', ( #40 ) ) ;
#100 =( GEOMETRIC_REPRESENTATION_CONTEXT ( 3 ) GLOBAL_UNCERTAINTY_ASSIGNED_CONTEXT ( ( #21 ) ) GLOBAL_UNIT_ASSIGNED_CONTEXT ( ( #206, #120, #173 ) ) REPRESENTATION_CONTEXT ( 'NONE', 'WORKASPACE' ) );
#101 = DATE_AND_TIME ( #197, #63 ) ;
#102 = CALENDAR_DATE ( 2021, 8, 12 ) ;
#103 = EDGE_LOOP ( 'NONE', ( #170 ) ) ;
#104 = CARTESIAN_POINT ( 'NONE',  ( 0.0000000000000000000, 0.0000000000000000000, 0.0000000000000000000 ) ) ;
#105 = DATE_AND_TIME ( #80, #111 ) ;
#106 = CIRCLE ( 'NONE', #129, 1.999999999999996669 ) ;
#107 = ADVANCED_FACE ( 'NONE', ( #32 ), #42, .F. ) ;
#108 = VERTEX_POINT ( 'NONE', #136 ) ;
#109 = SHAPE_DEFINITION_REPRESENTATION ( #92, #5 ) ;
#110 = APPROVAL_PERSON_ORGANIZATION ( #69, #36, #159 ) ;
#111 = LOCAL_TIME ( 9, 40, 9.000000000000000000, #16 ) ;
#112 = CC_DESIGN_PERSON_AND_ORGANIZATION_ASSIGNMENT ( #38, #158, ( #222 ) ) ;
#113 = PERSON_AND_ORGANIZATION_ROLE ( 'design_supplier' ) ;
#114 = APPLICATION_CONTEXT ( 'configuration controlled 3d designs of mechanical parts and assemblies' ) ;
#115 = DATE_AND_TIME ( #26, #11 ) ;
#116 = CARTESIAN_POINT ( 'NONE',  ( 0.0000000000000000000, 0.0000000000000000000, 0.0000000000000000000 ) ) ;
#117 = LOCAL_TIME ( 9, 40, 9.000000000000000000, #191 ) ;
#118 = DIRECTION ( 'NONE',  ( 3.491481338843133355E-15, -1.276467311168695266E-16, 1.000000000000000000 ) ) ;
#119 = EDGE_CURVE ( 'NONE', #62, #62, #3, .T. ) ;
#120 =( NAMED_UNIT ( * ) PLANE_ANGLE_UNIT ( ) SI_UNIT ( $, .RADIAN. ) );
#121 = PERSON_AND_ORGANIZATION ( #139, #189 ) ;
#122 = CARTESIAN_POINT ( 'NONE',  ( 2.094888803305880013E-13, 1.799999999999992495, 60.00000000000000000 ) ) ;
#123 = CIRCLE ( 'NONE', #144, 0.9999999999999988898 ) ;
#124 = EDGE_CURVE ( 'NONE', #47, #47, #34, .T. ) ;
#125 = SECURITY_CLASSIFICATION ( '', '', #33 ) ;
#126 = EDGE_CURVE ( 'NONE', #85, #85, #106, .T. ) ;
#127 = PERSON_AND_ORGANIZATION ( #139, #189 ) ;
#128 = CC_DESIGN_APPROVAL ( #50, ( #222 ) ) ;
#129 = AXIS2_PLACEMENT_3D ( 'NONE', #60, #203, #196 ) ;
#130 = FACE_OUTER_BOUND ( 'NONE', #13, .T. ) ;
#131 = ORIENTED_EDGE ( 'NONE', *, *, #126, .T. ) ;
#132 = DESIGN_CONTEXT ( 'detailed design', #114, 'design' ) ;
#133 = COORDINATED_UNIVERSAL_TIME_OFFSET ( 1, 0, .AHEAD. ) ;
#134 = DIRECTION ( 'NONE',  ( -4.275831445896958607E-31, -1.000000000000000000, -1.224646799147353207E-16 ) ) ;
#135 = AXIS2_PLACEMENT_3D ( 'NONE', #95, #214, #44 ) ;
#136 = CARTESIAN_POINT ( 'NONE',  ( -3.618607013836511207E-32, -0.9999999999999986677, -1.036410240426918204E-17 ) ) ;
#137 = DIRECTION ( 'NONE',  ( -3.491481338843133355E-15, 1.224646799147353207E-16, -1.000000000000000000 ) ) ;
#138 = APPROVAL_PERSON_ORGANIZATION ( #55, #50, #93 ) ;
#139 = PERSON ( 'UNSPECIFIED', 'UNSPECIFIED', 'UNSPECIFIED', ('UNSPECIFIED'), ('UNSPECIFIED'), ('UNSPECIFIED') ) ;
#140 = PRODUCT_DEFINITION ( 'UNKNOWN', '', #222, #132 ) ;
#141 = APPROVAL_DATE_TIME ( #70, #36 ) ;
#142 = AXIS2_PLACEMENT_3D ( 'NONE', #57, #137, #73 ) ;
#143 = ORIENTED_EDGE ( 'NONE', *, *, #126, .F. ) ;
#144 = AXIS2_PLACEMENT_3D ( 'NONE', #174, #17, #65 ) ;
#145 = CARTESIAN_POINT ( 'NONE',  ( 2.793185071074506684E-14, -1.021173848934956212E-15, 8.000000000000000000 ) ) ;
#146 = DIRECTION ( 'NONE',  ( 4.275831445896958607E-31, 1.000000000000000000, 1.224646799147353207E-16 ) ) ;
#147 = FACE_OUTER_BOUND ( 'NONE', #198, .T. ) ;
#148 = APPROVAL_DATE_TIME ( #105, #25 ) ;
#149 = DIRECTION ( 'NONE',  ( 3.491481338843133355E-15, -1.224646799147353207E-16, 1.000000000000000000 ) ) ;
#150 = VERTEX_POINT ( 'NONE', #37 ) ;
#151 = ADVANCED_FACE ( 'NONE', ( #179, #28 ), #157, .T. ) ;
#152 = FACE_OUTER_BOUND ( 'NONE', #164, .T. ) ;
#153 = APPLICATION_PROTOCOL_DEFINITION ( 'international standard', 'config_control_design', 1994, #163 ) ;
#154 = FACE_OUTER_BOUND ( 'NONE', #213, .T. ) ;
#155 = ORIENTED_EDGE ( 'NONE', *, *, #52, .F. ) ;
#156 = PRODUCT ( '372577', '372577', '', ( #51 ) ) ;
#157 = CONICAL_SURFACE ( 'NONE', #135, 5.999999999999999112, 0.2617993877991501850 ) ;
#158 = PERSON_AND_ORGANIZATION_ROLE ( 'creator' ) ;
#159 = APPROVAL_ROLE ( '' ) ;
#160 = CALENDAR_DATE ( 2021, 8, 12 ) ;
#161 = LOCAL_TIME ( 9, 40, 9.000000000000000000, #84 ) ;
#162 = EDGE_LOOP ( 'NONE', ( #219 ) ) ;
#163 = APPLICATION_CONTEXT ( 'configuration controlled 3d designs of mechanical parts and assemblies' ) ;
#164 = EDGE_LOOP ( 'NONE', ( #184 ) ) ;
#165 = ORIENTED_EDGE ( 'NONE', *, *, #119, .F. ) ;
#166 = PLANE ( 'NONE',  #76 ) ;
#167 = CC_DESIGN_APPROVAL ( #25, ( #125 ) ) ;
#168 = DATE_TIME_ROLE ( 'creation_date' ) ;
#169 = APPROVAL_STATUS ( 'not_yet_approved' ) ;
#170 = ORIENTED_EDGE ( 'NONE', *, *, #124, .F. ) ;
#171 = DIRECTION ( 'NONE',  ( 0.0000000000000000000, 0.0000000000000000000, 1.000000000000000000 ) ) ;
#172 = DIRECTION ( 'NONE',  ( 3.491481338843133355E-15, -1.224646799147353207E-16, 1.000000000000000000 ) ) ;
#173 =( NAMED_UNIT ( * ) SI_UNIT ( $, .STERADIAN. ) SOLID_ANGLE_UNIT ( ) );
#174 = CARTESIAN_POINT ( 'NONE',  ( 2.793185071074506684E-14, -1.021173848934956212E-15, 8.000000000000000000 ) ) ;
#175 = MANIFOLD_SOLID_BREP ( 'Corps-Déplacer/Copier1[1]', #41 ) ;
#176 = CC_DESIGN_PERSON_AND_ORGANIZATION_ASSIGNMENT ( #46, #113, ( #222 ) ) ;
#177 = AXIS2_PLACEMENT_3D ( 'NONE', #104, #171, #88 ) ;
#178 = DIRECTION ( 'NONE',  ( 0.0000000000000000000, 1.000000000000000000, 0.0000000000000000000 ) ) ;
#179 = FACE_BOUND ( 'NONE', #162, .T. ) ;
#180 = EDGE_LOOP ( 'NONE', ( #193 ) ) ;
#181 = ADVANCED_FACE ( 'NONE', ( #154, #210 ), #24, .T. ) ;
#182 = ORIENTED_EDGE ( 'NONE', *, *, #215, .T. ) ;
#183 = PERSON_AND_ORGANIZATION ( #139, #189 ) ;
#184 = ORIENTED_EDGE ( 'NONE', *, *, #52, .T. ) ;
#185 = CARTESIAN_POINT ( 'NONE',  ( 4.096223646098617812E-14, -1.999999999999997780, 11.73205080756885721 ) ) ;
#186 = DIRECTION ( 'NONE',  ( 0.0000000000000000000, 1.000000000000000000, 0.0000000000000000000 ) ) ;
#187 = FACE_OUTER_BOUND ( 'NONE', #99, .T. ) ;
#188 = CIRCLE ( 'NONE', #58, 0.9999999999999986677 ) ;
#189 = ORGANIZATION ( 'UNSPECIFIED', 'UNSPECIFIED', '' ) ;
#190 = APPROVAL_DATE_TIME ( #87, #50 ) ;
#191 = COORDINATED_UNIVERSAL_TIME_OFFSET ( 1, 0, .AHEAD. ) ;
#192 = CC_DESIGN_PERSON_AND_ORGANIZATION_ASSIGNMENT ( #127, #23, ( #156 ) ) ;
#193 = ORIENTED_EDGE ( 'NONE', *, *, #204, .T. ) ;
#194 = CC_DESIGN_PERSON_AND_ORGANIZATION_ASSIGNMENT ( #183, #78, ( #125 ) ) ;
#195 = ORIENTED_EDGE ( 'NONE', *, *, #215, .F. ) ;
#196 = DIRECTION ( 'NONE',  ( 0.0000000000000000000, -1.000000000000000000, 0.0000000000000000000 ) ) ;
#197 = CALENDAR_DATE ( 2021, 8, 12 ) ;
#198 = EDGE_LOOP ( 'NONE', ( #155 ) ) ;
#199 = CARTESIAN_POINT ( 'NONE',  ( 2.094888803305880013E-13, 1.349783804395660626E-32, 60.00000000000000000 ) ) ;
#200 = AXIS2_PLACEMENT_3D ( 'NONE', #48, #19, #178 ) ;
#201 = CARTESIAN_POINT ( 'NONE',  ( 4.094901095205113395E-31, -3.841940660073961603E-32, 1.172826287126001781E-16 ) ) ;
#202 = VERTEX_POINT ( 'NONE', #82 ) ;
#203 = DIRECTION ( 'NONE',  ( -3.491481338843133355E-15, 1.276467311168695266E-16, -1.000000000000000000 ) ) ;
#204 = EDGE_CURVE ( 'NONE', #202, #202, #123, .T. ) ;
#205 = DIRECTION ( 'NONE',  ( -4.275831445896958607E-31, -1.000000000000000000, -1.224646799147353207E-16 ) ) ;
#206 =( LENGTH_UNIT ( ) NAMED_UNIT ( * ) SI_UNIT ( .MILLI., .METRE. ) );
#207 = CARTESIAN_POINT ( 'NONE',  ( 2.094888803305880013E-13, -7.347880794884118356E-15, 60.00000000000000000 ) ) ;
#208 = CC_DESIGN_APPROVAL ( #36, ( #140 ) ) ;
#209 = PRODUCT_RELATED_PRODUCT_CATEGORY ( 'detail', '', ( #156 ) ) ;
#210 = FACE_BOUND ( 'NONE', #81, .T. ) ;
#211 = DIRECTION ( 'NONE',  ( 3.491481338843133355E-15, -1.276467311168695266E-16, 1.000000000000000000 ) ) ;
#212 = PERSON_AND_ORGANIZATION ( #139, #189 ) ;
#213 = EDGE_LOOP ( 'NONE', ( #195 ) ) ;
#214 = DIRECTION ( 'NONE',  ( 3.491481338843133355E-15, -1.276467311168695266E-16, 1.000000000000000000 ) ) ;
#215 = EDGE_CURVE ( 'NONE', #150, #150, #83, .T. ) ;
#216 = CYLINDRICAL_SURFACE ( 'NONE', #18, 1.999999999999996669 ) ;
#217 = DIRECTION ( 'NONE',  ( -4.456761796588771413E-31, -1.000000000000000000, -1.276467311168695019E-16 ) ) ;
#218 = EDGE_LOOP ( 'NONE', ( #165 ) ) ;
#219 = ORIENTED_EDGE ( 'NONE', *, *, #119, .T. ) ;
#220 = COORDINATED_UNIVERSAL_TIME_OFFSET ( 1, 0, .AHEAD. ) ;
#221 = DIRECTION ( 'NONE',  ( 0.0000000000000000000, -1.000000000000000000, 0.0000000000000000000 ) ) ;
#222 = PRODUCT_DEFINITION_FORMATION_WITH_SPECIFIED_SOURCE ( 'ANY', '', #156, .NOT_KNOWN. ) ;
#223 = CYLINDRICAL_SURFACE ( 'NONE', #89, 0.9999999999999986677 ) ;
ENDSEC;
END-ISO-10303-21;
