ISO-10303-21;
HEADER;
FILE_DESCRIPTION (( 'STEP AP203' ),
    '1' );
FILE_NAME ('372576.step',
    '2021-12-08T08:40:09',
    ( '' ),
    ( '' ),
    'SwSTEP 2.0',
    'SolidWorks 2019',
    '' );
FILE_SCHEMA (( 'CONFIG_CONTROL_DESIGN' ));
ENDSEC;

DATA;
#1 = ORIENTED_EDGE ( 'NONE', *, *, #80, .T. ) ;
#2 = SECURITY_CLASSIFICATION_LEVEL ( 'unclassified' ) ;
#3 = CARTESIAN_POINT ( 'NONE',  ( 2.087905840628193620E-13, -7.323387858901173219E-15, 59.79999999999999716 ) ) ;
#4 = FACE_BOUND ( 'NONE', #121, .T. ) ;
#5 = DIRECTION ( 'NONE',  ( 3.491481338843133355E-15, -1.276467311168695266E-16, 1.000000000000000000 ) ) ;
#6 = CC_DESIGN_APPROVAL ( #203, ( #194 ) ) ;
#7 = AXIS2_PLACEMENT_3D ( 'NONE', #27, #165, #9 ) ;
#8 = ADVANCED_FACE ( 'NONE', ( #36 ), #179, .F. ) ;
#9 = DIRECTION ( 'NONE',  ( 0.0000000000000000000, -1.000000000000000000, 0.0000000000000000000 ) ) ;
#10 = ADVANCED_BREP_SHAPE_REPRESENTATION ( '372576', ( #86, #25, #31 ), #59 ) ;
#11 = PERSON_AND_ORGANIZATION ( #164, #161 ) ;
#12 = CC_DESIGN_DATE_AND_TIME_ASSIGNMENT ( #32, #209, ( #194 ) ) ;
#13 = SECURITY_CLASSIFICATION ( '', '', #2 ) ;
#14 = PRODUCT ( '372576', '372576', '', ( #170 ) ) ;
#15 = APPROVAL_ROLE ( '' ) ;
#16 = COORDINATED_UNIVERSAL_TIME_OFFSET ( 1, 0, .AHEAD. ) ;
#17 = EDGE_LOOP ( 'NONE', ( #51 ) ) ;
#18 = APPROVAL_DATE_TIME ( #82, #203 ) ;
#19 = APPROVAL_PERSON_ORGANIZATION ( #11, #203, #149 ) ;
#20 = EDGE_LOOP ( 'NONE', ( #177 ) ) ;
#21 = CIRCLE ( 'NONE', #189, 1.300000000000002709 ) ;
#22 = DIRECTION ( 'NONE',  ( 0.0000000000000000000, -1.000000000000000000, 0.0000000000000000000 ) ) ;
#23 = CIRCLE ( 'NONE', #48, 1.500000000000002887 ) ;
#24 = FACE_OUTER_BOUND ( 'NONE', #63, .T. ) ;
#25 = MANIFOLD_SOLID_BREP ( 'Corps-Déplacer/Copier1[2]', #128 ) ;
#26 = CYLINDRICAL_SURFACE ( 'NONE', #92, 1.500000000000000000 ) ;
#27 = CARTESIAN_POINT ( 'NONE',  ( 2.793185071074506684E-14, -1.021173848934956212E-15, 8.000000000000000000 ) ) ;
#28 = DIRECTION ( 'NONE',  ( 4.275831445896958607E-31, 1.000000000000000000, 1.224646799147353207E-16 ) ) ;
#29 = CARTESIAN_POINT ( 'NONE',  ( -3.618607013836511207E-32, -0.9999999999999986677, -1.036410240426918204E-17 ) ) ;
#30 = DATE_TIME_ROLE ( 'classification_date' ) ;
#31 = AXIS2_PLACEMENT_3D ( 'NONE', #185, #151, #220 ) ;
#32 = DATE_AND_TIME ( #64, #35 ) ;
#33 = APPROVAL_ROLE ( '' ) ;
#34 = ORIENTED_EDGE ( 'NONE', *, *, #180, .F. ) ;
#35 = LOCAL_TIME ( 9, 40, 9.000000000000000000, #16 ) ;
#36 = FACE_OUTER_BOUND ( 'NONE', #159, .T. ) ;
#37 = APPROVAL_STATUS ( 'not_yet_approved' ) ;
#38 = ORIENTED_EDGE ( 'NONE', *, *, #97, .F. ) ;
#39 = DIRECTION ( 'NONE',  ( -3.491481338843133355E-15, 1.224646799147353207E-16, -1.000000000000000000 ) ) ;
#40 = CARTESIAN_POINT ( 'NONE',  ( 2.094888803305880013E-13, 9.748438587301984133E-33, 60.00000000000000000 ) ) ;
#41 = DIRECTION ( 'NONE',  ( 0.0000000000000000000, -1.000000000000000000, 0.0000000000000000000 ) ) ;
#42 = CARTESIAN_POINT ( 'NONE',  ( 0.0000000000000000000, 0.0000000000000000000, 0.0000000000000000000 ) ) ;
#43 = CC_DESIGN_APPROVAL ( #101, ( #58 ) ) ;
#44 = CARTESIAN_POINT ( 'NONE',  ( 4.094901095205113395E-31, -3.841940660073961603E-32, 1.172826287126001781E-16 ) ) ;
#45 = CARTESIAN_POINT ( 'NONE',  ( 2.094888803305880013E-13, 1.299999999999995381, 60.00000000000000000 ) ) ;
#46 = AXIS2_PLACEMENT_3D ( 'NONE', #71, #67, #113 ) ;
#47 = PERSON_AND_ORGANIZATION ( #164, #161 ) ;
#48 = AXIS2_PLACEMENT_3D ( 'NONE', #3, #198, #195 ) ;
#49 = CC_DESIGN_PERSON_AND_ORGANIZATION_ASSIGNMENT ( #206, #190, ( #194 ) ) ;
#50 = PERSON_AND_ORGANIZATION ( #164, #161 ) ;
#51 = ORIENTED_EDGE ( 'NONE', *, *, #157, .F. ) ;
#52 = ORIENTED_EDGE ( 'NONE', *, *, #134, .F. ) ;
#53 = PERSON_AND_ORGANIZATION_ROLE ( 'classification_officer' ) ;
#54 = APPROVAL ( #172, 'UNSPECIFIED' ) ;
#55 = PLANE ( 'NONE',  #112 ) ;
#56 = FACE_OUTER_BOUND ( 'NONE', #78, .T. ) ;
#57 = CARTESIAN_POINT ( 'NONE',  ( 2.094888803305880013E-13, -7.347880794884118356E-15, 60.00000000000000000 ) ) ;
#58 = PRODUCT_DEFINITION_FORMATION_WITH_SPECIFIED_SOURCE ( 'ANY', '', #14, .NOT_KNOWN. ) ;
#59 =( GEOMETRIC_REPRESENTATION_CONTEXT ( 3 ) GLOBAL_UNCERTAINTY_ASSIGNED_CONTEXT ( ( #107 ) ) GLOBAL_UNIT_ASSIGNED_CONTEXT ( ( #98, #135, #95 ) ) REPRESENTATION_CONTEXT ( 'NONE', 'WORKASPACE' ) );
#60 = PERSON_AND_ORGANIZATION_ROLE ( 'design_owner' ) ;
#61 = COORDINATED_UNIVERSAL_TIME_OFFSET ( 1, 0, .AHEAD. ) ;
#62 = ORIENTED_EDGE ( 'NONE', *, *, #152, .T. ) ;
#63 = EDGE_LOOP ( 'NONE', ( #38 ) ) ;
#64 = CALENDAR_DATE ( 2021, 8, 12 ) ;
#65 = CC_DESIGN_PERSON_AND_ORGANIZATION_ASSIGNMENT ( #160, #138, ( #58 ) ) ;
#66 = FACE_OUTER_BOUND ( 'NONE', #20, .T. ) ;
#67 = DIRECTION ( 'NONE',  ( 3.491481338843133355E-15, -1.276467311168695266E-16, 1.000000000000000000 ) ) ;
#68 = FACE_OUTER_BOUND ( 'NONE', #155, .T. ) ;
#69 = AXIS2_PLACEMENT_3D ( 'NONE', #142, #197, #22 ) ;
#70 = CARTESIAN_POINT ( 'NONE',  ( -2.137963133637054202E-31, 7.498965207619277220E-33, -6.123369785345741004E-17 ) ) ;
#71 = CARTESIAN_POINT ( 'NONE',  ( -6.413839710158237013E-31, 0.0000000000000000000, -1.836996703606440502E-16 ) ) ;
#72 = CC_DESIGN_PERSON_AND_ORGANIZATION_ASSIGNMENT ( #175, #83, ( #58 ) ) ;
#73 = APPROVAL_STATUS ( 'not_yet_approved' ) ;
#74 = CC_DESIGN_PERSON_AND_ORGANIZATION_ASSIGNMENT ( #47, #60, ( #14 ) ) ;
#75 = PRODUCT_DEFINITION_SHAPE ( 'NONE', 'NONE',  #194 ) ;
#76 = LOCAL_TIME ( 9, 40, 9.000000000000000000, #61 ) ;
#77 = COORDINATED_UNIVERSAL_TIME_OFFSET ( 1, 0, .AHEAD. ) ;
#78 = EDGE_LOOP ( 'NONE', ( #52 ) ) ;
#79 = PERSON_AND_ORGANIZATION ( #164, #161 ) ;
#80 = EDGE_CURVE ( 'NONE', #133, #133, #106, .T. ) ;
#81 = ORIENTED_EDGE ( 'NONE', *, *, #80, .F. ) ;
#82 = DATE_AND_TIME ( #191, #143 ) ;
#83 = PERSON_AND_ORGANIZATION_ROLE ( 'creator' ) ;
#84 = CC_DESIGN_APPROVAL ( #54, ( #13 ) ) ;
#85 = DIRECTION ( 'NONE',  ( 3.491481338843133355E-15, -1.276467311168695266E-16, 1.000000000000000000 ) ) ;
#86 = MANIFOLD_SOLID_BREP ( 'Corps-Déplacer/Copier1[1]', #178 ) ;
#87 = ADVANCED_FACE ( 'NONE', ( #130, #4 ), #169, .T. ) ;
#88 = CIRCLE ( 'NONE', #7, 0.9999999999999988898 ) ;
#89 = DIRECTION ( 'NONE',  ( 0.0000000000000000000, 1.000000000000000000, 0.0000000000000000000 ) ) ;
#90 = CARTESIAN_POINT ( 'NONE',  ( 2.793185071074506684E-14, -1.021173848934956212E-15, 8.000000000000000000 ) ) ;
#91 = DIRECTION ( 'NONE',  ( 0.0000000000000000000, -1.000000000000000000, 0.0000000000000000000 ) ) ;
#92 = AXIS2_PLACEMENT_3D ( 'NONE', #42, #94, #147 ) ;
#93 = ADVANCED_FACE ( 'NONE', ( #68 ), #216, .F. ) ;
#94 = DIRECTION ( 'NONE',  ( -3.491481338843133355E-15, 1.224646799147353207E-16, -1.000000000000000000 ) ) ;
#95 =( NAMED_UNIT ( * ) SI_UNIT ( $, .STERADIAN. ) SOLID_ANGLE_UNIT ( ) );
#96 = VERTEX_POINT ( 'NONE', #184 ) ;
#97 = EDGE_CURVE ( 'NONE', #132, #132, #21, .T. ) ;
#98 =( LENGTH_UNIT ( ) NAMED_UNIT ( * ) SI_UNIT ( .MILLI., .METRE. ) );
#99 = APPLICATION_PROTOCOL_DEFINITION ( 'international standard', 'config_control_design', 1994, #150 ) ;
#100 = CALENDAR_DATE ( 2021, 8, 12 ) ;
#101 = APPROVAL ( #37, 'UNSPECIFIED' ) ;
#102 = ORIENTED_EDGE ( 'NONE', *, *, #152, .F. ) ;
#103 = DATE_AND_TIME ( #205, #187 ) ;
#104 = DIRECTION ( 'NONE',  ( 0.0000000000000000000, 1.000000000000000000, 0.0000000000000000000 ) ) ;
#105 = AXIS2_PLACEMENT_3D ( 'NONE', #57, #218, #89 ) ;
#106 = CIRCLE ( 'NONE', #139, 0.9999999999999988898 ) ;
#107 = UNCERTAINTY_MEASURE_WITH_UNIT (LENGTH_MEASURE( 1.000000000000000082E-05 ), #98, 'distance_accuracy_value', 'NONE');
#108 = CYLINDRICAL_SURFACE ( 'NONE', #46, 0.9999999999999986677 ) ;
#109 = DIRECTION ( 'NONE',  ( -4.275831445896958607E-31, -1.000000000000000000, -1.224646799147353207E-16 ) ) ;
#110 = ADVANCED_FACE ( 'NONE', ( #124, #181 ), #108, .T. ) ;
#111 = CARTESIAN_POINT ( 'NONE',  ( 2.793185071074506684E-14, 1.124819836996389648E-32, 8.000000000000000000 ) ) ;
#112 = AXIS2_PLACEMENT_3D ( 'NONE', #126, #129, #109 ) ;
#113 = DIRECTION ( 'NONE',  ( -4.456761796588771413E-31, -1.000000000000000000, -1.276467311168695019E-16 ) ) ;
#114 = CC_DESIGN_DATE_AND_TIME_ASSIGNMENT ( #156, #30, ( #13 ) ) ;
#115 = CARTESIAN_POINT ( 'NONE',  ( 2.087905840628193620E-13, 1.499999999999995559, 59.79999999999999716 ) ) ;
#116 = ADVANCED_FACE ( 'NONE', ( #24 ), #141, .F. ) ;
#117 = APPROVAL_DATE_TIME ( #103, #101 ) ;
#118 = AXIS2_PLACEMENT_3D ( 'NONE', #166, #182, #91 ) ;
#119 = APPROVAL_DATE_TIME ( #154, #54 ) ;
#120 = ADVANCED_FACE ( 'NONE', ( #215, #213 ), #174, .T. ) ;
#121 = EDGE_LOOP ( 'NONE', ( #192 ) ) ;
#122 = CIRCLE ( 'NONE', #153, 0.9999999999999986677 ) ;
#123 = ADVANCED_FACE ( 'NONE', ( #201, #56 ), #26, .T. ) ;
#124 = FACE_OUTER_BOUND ( 'NONE', #210, .T. ) ;
#125 = LOCAL_TIME ( 9, 40, 9.000000000000000000, #77 ) ;
#126 = CARTESIAN_POINT ( 'NONE',  ( 2.793185071074506684E-14, 1.124819836996389648E-32, 8.000000000000000000 ) ) ;
#127 = AXIS2_PLACEMENT_3D ( 'NONE', #40, #183, #28 ) ;
#128 = CLOSED_SHELL ( 'NONE', ( #176, #110, #93 ) ) ;
#129 = DIRECTION ( 'NONE',  ( 3.491481338843133355E-15, -1.224646799147353207E-16, 1.000000000000000000 ) ) ;
#130 = FACE_OUTER_BOUND ( 'NONE', #17, .T. ) ;
#131 = DIRECTION ( 'NONE',  ( -4.275831445896958607E-31, -1.000000000000000000, -1.224646799147353207E-16 ) ) ;
#132 = VERTEX_POINT ( 'NONE', #45 ) ;
#133 = VERTEX_POINT ( 'NONE', #204 ) ;
#134 = EDGE_CURVE ( 'NONE', #168, #168, #221, .T. ) ;
#135 =( NAMED_UNIT ( * ) PLANE_ANGLE_UNIT ( ) SI_UNIT ( $, .RADIAN. ) );
#136 = SHAPE_DEFINITION_REPRESENTATION ( #75, #10 ) ;
#137 = EDGE_LOOP ( 'NONE', ( #34 ) ) ;
#138 = PERSON_AND_ORGANIZATION_ROLE ( 'design_supplier' ) ;
#139 = AXIS2_PLACEMENT_3D ( 'NONE', #90, #5, #41 ) ;
#140 = ORIENTED_EDGE ( 'NONE', *, *, #157, .T. ) ;
#141 = PLANE ( 'NONE',  #127 ) ;
#142 = CARTESIAN_POINT ( 'NONE',  ( 9.308377946195078733E-14, -3.403094278676150455E-15, 26.66025403784433223 ) ) ;
#143 = LOCAL_TIME ( 9, 40, 9.000000000000000000, #219 ) ;
#144 = DIRECTION ( 'NONE',  ( 3.491481338843133355E-15, -1.224646799147353207E-16, 1.000000000000000000 ) ) ;
#145 = AXIS2_PLACEMENT_3D ( 'NONE', #70, #199, #131 ) ;
#146 = APPLICATION_CONTEXT ( 'configuration controlled 3d designs of mechanical parts and assemblies' ) ;
#147 = DIRECTION ( 'NONE',  ( 4.275831445896959482E-31, 1.000000000000000000, 1.224646799147353207E-16 ) ) ;
#148 = DIRECTION ( 'NONE',  ( -4.275831445896958607E-31, -1.000000000000000000, -1.224646799147353207E-16 ) ) ;
#149 = APPROVAL_ROLE ( '' ) ;
#150 = APPLICATION_CONTEXT ( 'configuration controlled 3d designs of mechanical parts and assemblies' ) ;
#151 = DIRECTION ( 'NONE',  ( 0.0000000000000000000, 0.0000000000000000000, 1.000000000000000000 ) ) ;
#152 = EDGE_CURVE ( 'NONE', #202, #202, #122, .T. ) ;
#153 = AXIS2_PLACEMENT_3D ( 'NONE', #44, #85, #162 ) ;
#154 = DATE_AND_TIME ( #100, #125 ) ;
#155 = EDGE_LOOP ( 'NONE', ( #102 ) ) ;
#156 = DATE_AND_TIME ( #186, #76 ) ;
#157 = EDGE_CURVE ( 'NONE', #223, #223, #23, .T. ) ;
#158 = EDGE_LOOP ( 'NONE', ( #140 ) ) ;
#159 = EDGE_LOOP ( 'NONE', ( #81 ) ) ;
#160 = PERSON_AND_ORGANIZATION ( #164, #161 ) ;
#161 = ORGANIZATION ( 'UNSPECIFIED', 'UNSPECIFIED', '' ) ;
#162 = DIRECTION ( 'NONE',  ( -4.456761796588770537E-31, -1.000000000000000000, -1.276467311168695266E-16 ) ) ;
#163 = CARTESIAN_POINT ( 'NONE',  ( 2.094888803305880013E-13, -7.347880794884118356E-15, 60.00000000000000000 ) ) ;
#164 = PERSON ( 'UNSPECIFIED', 'UNSPECIFIED', 'UNSPECIFIED', ('UNSPECIFIED'), ('UNSPECIFIED'), ('UNSPECIFIED') ) ;
#165 = DIRECTION ( 'NONE',  ( 3.491481338843133355E-15, -1.276467311168695266E-16, 1.000000000000000000 ) ) ;
#166 = CARTESIAN_POINT ( 'NONE',  ( 3.444704358586564773E-14, -1.259365891909075873E-15, 9.866025403784437486 ) ) ;
#167 = APPLICATION_PROTOCOL_DEFINITION ( 'international standard', 'config_control_design', 1994, #146 ) ;
#168 = VERTEX_POINT ( 'NONE', #222 ) ;
#169 = CONICAL_SURFACE ( 'NONE', #105, 1.300000000000002709, 0.7853981633974516097 ) ;
#170 = MECHANICAL_CONTEXT ( 'NONE', #150, 'mechanical' ) ;
#171 = CC_DESIGN_SECURITY_CLASSIFICATION ( #13, ( #58 ) ) ;
#172 = APPROVAL_STATUS ( 'not_yet_approved' ) ;
#173 = COORDINATED_UNIVERSAL_TIME_OFFSET ( 1, 0, .AHEAD. ) ;
#174 = CONICAL_SURFACE ( 'NONE', #69, 5.999999999999999112, 0.2617993877991501850 ) ;
#175 = PERSON_AND_ORGANIZATION ( #164, #161 ) ;
#176 = ADVANCED_FACE ( 'NONE', ( #66 ), #55, .T. ) ;
#177 = ORIENTED_EDGE ( 'NONE', *, *, #180, .T. ) ;
#178 = CLOSED_SHELL ( 'NONE', ( #123, #87, #116, #120, #8 ) ) ;
#179 = PLANE ( 'NONE',  #207 ) ;
#180 = EDGE_CURVE ( 'NONE', #96, #96, #88, .T. ) ;
#181 = FACE_OUTER_BOUND ( 'NONE', #137, .T. ) ;
#182 = DIRECTION ( 'NONE',  ( -3.491481338843133355E-15, 1.276467311168695266E-16, -1.000000000000000000 ) ) ;
#183 = DIRECTION ( 'NONE',  ( -3.491481338843133355E-15, 1.224646799147353207E-16, -1.000000000000000000 ) ) ;
#184 = CARTESIAN_POINT ( 'NONE',  ( 2.793185071074506684E-14, -1.000000000000000000, 8.000000000000000000 ) ) ;
#185 = CARTESIAN_POINT ( 'NONE',  ( 0.0000000000000000000, 0.0000000000000000000, 0.0000000000000000000 ) ) ;
#186 = CALENDAR_DATE ( 2021, 8, 12 ) ;
#187 = LOCAL_TIME ( 9, 40, 9.000000000000000000, #173 ) ;
#188 = APPROVAL_PERSON_ORGANIZATION ( #79, #101, #33 ) ;
#189 = AXIS2_PLACEMENT_3D ( 'NONE', #163, #39, #104 ) ;
#190 = PERSON_AND_ORGANIZATION_ROLE ( 'creator' ) ;
#191 = CALENDAR_DATE ( 2021, 8, 12 ) ;
#192 = ORIENTED_EDGE ( 'NONE', *, *, #97, .T. ) ;
#193 = EDGE_LOOP ( 'NONE', ( #1 ) ) ;
#194 = PRODUCT_DEFINITION ( 'UNKNOWN', '', #58, #214 ) ;
#195 = DIRECTION ( 'NONE',  ( 0.0000000000000000000, 1.000000000000000000, 0.0000000000000000000 ) ) ;
#196 = APPROVAL_PERSON_ORGANIZATION ( #50, #54, #15 ) ;
#197 = DIRECTION ( 'NONE',  ( 3.491481338843133355E-15, -1.276467311168695266E-16, 1.000000000000000000 ) ) ;
#198 = DIRECTION ( 'NONE',  ( -3.491481338843133355E-15, 1.224646799147353207E-16, -1.000000000000000000 ) ) ;
#199 = DIRECTION ( 'NONE',  ( 3.491481338843133355E-15, -1.224646799147353207E-16, 1.000000000000000000 ) ) ;
#200 = PRODUCT_RELATED_PRODUCT_CATEGORY ( 'detail', '', ( #14 ) ) ;
#201 = FACE_OUTER_BOUND ( 'NONE', #158, .T. ) ;
#202 = VERTEX_POINT ( 'NONE', #29 ) ;
#203 = APPROVAL ( #73, 'UNSPECIFIED' ) ;
#204 = CARTESIAN_POINT ( 'NONE',  ( 2.793185071074506684E-14, -1.000000000000000000, 8.000000000000000000 ) ) ;
#205 = CALENDAR_DATE ( 2021, 8, 12 ) ;
#206 = PERSON_AND_ORGANIZATION ( #164, #161 ) ;
#207 = AXIS2_PLACEMENT_3D ( 'NONE', #111, #144, #148 ) ;
#208 = ORIENTED_EDGE ( 'NONE', *, *, #134, .T. ) ;
#209 = DATE_TIME_ROLE ( 'creation_date' ) ;
#210 = EDGE_LOOP ( 'NONE', ( #62 ) ) ;
#211 = PERSON_AND_ORGANIZATION ( #164, #161 ) ;
#212 = EDGE_LOOP ( 'NONE', ( #208 ) ) ;
#213 = FACE_OUTER_BOUND ( 'NONE', #212, .T. ) ;
#214 = DESIGN_CONTEXT ( 'detailed design', #146, 'design' ) ;
#215 = FACE_BOUND ( 'NONE', #193, .T. ) ;
#216 = PLANE ( 'NONE',  #145 ) ;
#217 = CC_DESIGN_PERSON_AND_ORGANIZATION_ASSIGNMENT ( #211, #53, ( #13 ) ) ;
#218 = DIRECTION ( 'NONE',  ( -3.491481338843133355E-15, 1.224646799147353207E-16, -1.000000000000000000 ) ) ;
#219 = COORDINATED_UNIVERSAL_TIME_OFFSET ( 1, 0, .AHEAD. ) ;
#220 = DIRECTION ( 'NONE',  ( 1.000000000000000000, 0.0000000000000000000, 0.0000000000000000000 ) ) ;
#221 = CIRCLE ( 'NONE', #118, 1.500000000000000000 ) ;
#222 = CARTESIAN_POINT ( 'NONE',  ( 3.444704358586564773E-14, -1.500000000000001332, 9.866025403784437486 ) ) ;
#223 = VERTEX_POINT ( 'NONE', #115 ) ;
ENDSEC;
END-ISO-10303-21;
